Blink 182

Touchdown Boy Intro-easy Tabs



More from Blink 182

Blink 182 Tabs
Blink 182 Chords
Blink 182 Bass
Blink 182 Lyrics




someone else had this but this figering is easier

e|--------------------------------------------------------|
B|--------------------------------------------------------|
G|---9---------8------------------------------------------|
D|---9-7xs----8-3s----9-5x's---73xs---6--------2------|
A|---7---------6--------9-5x's---7-3x's---6-3x's---2-5x's-|
E|----------------------7--------5--------4--------0------|

e|--------------------------------------------------------|
B|--------------------------------------------------------|
G|---9---------8------------------------------------------|
D|---9-7xs----8-3s----9-5x's---73xs---6--------2------|
A|---7---------6--------9-5x's---7-3x's---6-3x's---2-5x's-|
E|----------------------7--------5--------4--------0------|



Get this song at amazon.com      Ebay     Ringtones Ringtones  


Learn to play: Songwriting, Piano, Harmonica, Guitar
More Blink 182 lyrics available at Muzikum

Related Blink 182 Tabs

Anthem tabs
Im Lost Without You tabs
Here\'s Your Letter tabs
Sex With His Sister tabs
I Miss You Live tabs
Man Overboard(right) tabs
My Pet Sally tabs
What\'s My Age Again tabs
Family Reunion tabs
Anthem Pt. 2 tabs
15 Yellow Version tabs
What Went Wrong Clarinet Solo tabs
Shit Piss tabs
Dysentery Gary Acoustic tabs
21 Days2 tabs
Macca Is Gay tabs
Time To Break Up tabs
Grandpa tabs
Good Times tabs
Grandpa Song tabs


Guitar Tabs









All tabs are property and copyright of their owners. All tabs provided for educational purposes only. Privacy Policy, DMCA