Blink 182

Toast And Bananas Tabs



More from Blink 182

Blink 182 Tabs
Blink 182 Chords
Blink 182 Bass
Blink 182 Lyrics

tabs-database.com[http://www.tabs-database.com.com/]


Artist: Blink 182

Song: Toast and Bananas

Album: Buddha (1994, remastered ’98)

Tabbed by: sampeckham2301

Tuning: Standard (EADGBE)





pm...... = Palm Mute





Intro:

E|---------------------------------------------------------------------|

B|---------------------------------------------------------------------|

G|-2--2-2-2-2-2-2-2-------------------------------------7-7-7-7--------|

D|-2--2-2-2-2-2-2-2--2--2-2-2-2-2-2-2--4-4-4-4-4-4-4-4--7-7-7-7--5-4-2-| x3

A|-0--0-0-0-0-0-0-0--2--2-2-2-2-2-2-2--4-4-4-4-4-4-4-4--5-5-5-5--------|

E|-------------------0--0-0-0-0-0-0-0--2-2-2-2-2-2-2-2-----------------|

pm...................................



E|-------------------------------------------------------------------|

B|-------------------------------------------------------------------|

G|-2--2-2-2-2-2-2-2-------------------------------------7~~~~~~~~----|

D|-2--2-2-2-2-2-2-2--2--2-2-2-2-2-2-2--4-4-4-4-4-4-4-4--7~~~~~~~~----| x1

A|-0--0-0-0-0-0-0-0--2--2-2-2-2-2-2-2--4-4-4-4-4-4-4-4--5~~~~~~~~----|

E|-------------------0--0-0-0-0-0-0-0--2-2-2-2-2-2-2-2---------------|

pm...................................



Note:

E|-------------------------------------------------------------------|

B|-------------------------------------------------------------------|

G|-------------------------------------------------------------------|

D|----777-66---------------------------------------------------------| x4

A|-00--------77-55-44--00-777-55-44-55-77-55-4-----------------------|

E|-------------------------------------------------------------------|



First Verse:

E|-------------------------------------------------------------------|

B|-------------------------------------------------------------------|

G|-2-2222------------------7-7777------------------------------------|

D|-2-2222--2-2222--4-4444--7-7777------------------------------------| x3

A|-0-0000--2-2222--4-4444--5-5555------------------------------------|

E|---------0-0000--2-2222--------------------------------------------|

pm .... .... .... ....



E|-------------------------------------------------------------------|

B|-------------------------------------------------------------------|

G|-2-2222------------------7-7-7-7-----------------------------------|

D|-2-2222--2-2222--4-4444--7-7-7-7-----------------------------------| x1

A|-0-0000--2-2222--4-4444--5-5-5-5-----------------------------------|

E|---------0-0000--2-2222--------------------------------------------|

.... .... ....



Chorus:

E|-------------------------------------------------------------------|

B|-------------------------------------------------------------------|

G|-2-2-2----9-9-9----111111---7-7-7-7--------------------------------|

D|-2-2-2----9-9-9----111111---7-7-7-7--------------------------------| x1

A|-0-0-0----7-7-7----9-9-9----5-5-5-5--------------------------------|



E|-------------------------------------------------------------------|



E|-------------------------------------------------------------------|

B|-------------------------------------------------------------------|

G|-2-2-2-2--9-9-9-9--11111111--7-7-7-7-------------------------------|

D|-2-2-2-2--9-9-9-9--11111111--7-7-7-7-------------------------------| x1

A|-0-0-0-0--7-7-7-7--9-9-9-9---5-5-5-5-------------------------------|

E|-------------------------------------------------------------------|



Pre-Verse

E|-------------------------------------------------------------------|

B|-------------------------------------------------------------------|

G|-------------------------------------------------------------------|

D|----777-66---------------------------------------------------------| x4

A|-00--------77-55-44--00-777-55-44-55-77-55-4-----------------------|

E|-------------------------------------------------------------------|



Second Verse

E|-------------------------------------------------------------------|

B|-------------------------------------------------------------------|

G|-2-2222------------------7-7777------------------------------------|

D|-2-2222--2-2222--4-4444--7-7777------------------------------------| x3

A|-0-0000--2-2222--4-4444--5-5555------------------------------------|

E|---------0-0000--2-2222--------------------------------------------|

pm .... .... .... ....



E|-------------------------------------------------------------------|

B|-------------------------------------------------------------------|

G|-2-2222------------------7-7-7-7-----------------------------------|

D|-2-2222--2-2222--4-4444--7-7-7-7-----------------------------------| x1

A|-0-0000--2-2222--4-4444--5-5-5-5-----------------------------------|

E|---------0-0000--2-2222--------------------------------------------|

pm .... .... ....



Pre-Chorus

E|-------------------------------------------------------------------|

B|-------------------------------------------------------------------|

G|-2-2-2-2-----------7-7-7-7-7-7-7-7---------------------------------|

D|-2-2-2-2--4-4-4-4--7-7-7-7-7-7-7-7---------------------------------| x1

A|-0-0-0-0--4-4-4-4--5-5-5-5-5-5-5-5---------------------------------|

E|----------2-2-2-2--------------------------------------------------|



E|-------------------------------------------------------------------|

B|-------------------------------------------------------------------|

G|-2-2-2-2-----------7-7-7-7--9-9-9-9--------------------------------|

D|-2-2-2-2--4-4-4-4--7-7-7-7--9-9-9-9--------------------------------| x1

A|-0-0-0-0--4-4-4-4--5-5-5-5--7-7-7-7--------------------------------|

E|----------2-2-2-2--------------------------------------------------|



Chorus

E|-------------------------------------------------------------------|

B|-------------------------------------------------------------------|

G|-2-2-2----9-9-9----111111---7-7-7-7--------------------------------|

D|-2-2-2----9-9-9----111111---7-7-7-7--------------------------------| x1

A|-0-0-0----7-7-7----9-9-9----5-5-5-5--------------------------------|

E|-------------------------------------------------------------------|



E|-------------------------------------------------------------------|

B|-------------------------------------------------------------------|

G|-2-2-2-2--9-9-9-9--11111111--7-7-7-7-------------------------------|

D|-2-2-2-2--9-9-9-9--11111111--7-7-7-7-------------------------------| x1

A|-0-0-0-0--7-7-7-7--9-9-9-9---5-5-5-5-------------------------------|

E|-------------------------------------------------------------------|



Bridge

E|-------------------------------------------------------------------|

B|-------------------------------------------------------------------|

G|-------------------------------------------------------------------|

D|----020------020------020------------------------------------------| x2

A|-024---42-024---42-024---42-0-2-4h5p4-2----------------------------|

E|-------------------------------------------------------------------|



E|----------9----------------9----------------9-------1212-1010-99------|

B|-10101010---12-10-10101010---12-10-10101010---12-10--------------1212-|

G|----------------------------------------------------------------------|

D|----------------------------------------------------------------------| x1

A|----------------------------------------------------------------------|

E|----------------------------------------------------------------------|



E|----------9----------------9---------------------------------------|

B|-10101010---12-10-10101010---12-10---9-9h10-12---9-9h10------------|

G|-----------------------------------9-----------9--------9----------|

D|-------------------------------------------------------------------| x1

A|-------------------------------------------------------------------|

E|-------------------------------------------------------------------|



Pre-Chorus

E|-------------------------------------------------------------------|

B|-------------------------------------------------------------------|

G|-2-2-2-2-----------7-7-7-7-7-7-7-7---------------------------------|

D|-2-2-2-2--4-4-4-4--7-7-7-7-7-7-7-7---------------------------------| x1

A|-0-0-0-0--4-4-4-4--5-5-5-5-5-5-5-5---------------------------------|

E|----------2-2-2-2--------------------------------------------------|



E|-------------------------------------------------------------------|

B|-------------------------------------------------------------------|

G|-2-2-2-2-----------7-7-7-7--9-9-9-9--------------------------------|

D|-2-2-2-2--4-4-4-4--7-7-7-7--9-9-9-9--------------------------------| x1

A|-0-0-0-0--4-4-4-4--5-5-5-5--7-7-7-7--------------------------------|

E|----------2-2-2-2--------------------------------------------------|



Chorus

E|-------------------------------------------------------------------|

B|-------------------------------------------------------------------|

G|-2-2-2----9-9-9----111111---7-7-7-7--------------------------------|

D|-2-2-2----9-9-9----111111---7-7-7-7--------------------------------| x1

A|-0-0-0----7-7-7----9-9-9----5-5-5-5--------------------------------|

E|-------------------------------------------------------------------|



E|-------------------------------------------------------------------|

B|-------------------------------------------------------------------|

G|-2-2-2-2--9-9-9-9--11111111--7-------------------------------------|

D|-2-2-2-2--9-9-9-9--11111111--7-------------------------------------| x1

A|-0-0-0-0--7-7-7-7--9-9-9-9---5-------------------------------------|

E|-------------------------------------------------------------------|



End On

E|-------------------------------------------------------------------|

B|-------------------------------------------------------------------|

G|-2~~~~-------------------------------------------------------------|

D|-2~~~~-------------------------------------------------------------| x1

A|-0~~~~-------------------------------------------------------------|

E|-------------------------------------------------------------------|



Thanks and please rate.
Added by tabs-database.com and our distinguished partners
Get this song at amazon.com      Ebay     Ringtones Ringtones  


Learn to play: Songwriting, Piano, Harmonica, Guitar
Also available at Muzikum: Blink 182 - Toast And Bananas lyrics

Related Blink 182 Tabs

Alians Exist tabs
Stay Together For The Kids tabs
Action Live tabs
I'm Sorry tabs
Red Skies tabs
78 People tabs
A Letter To Elise tabs
Voyeur tabs
M&ms tabs
Give Me One Good Reason tabs
Here\'s Your Letter tabs
When You F*cked Grandpa (easy For Beinners) tabs
Adam\'s Song tabs
13 Miles tabs
Pathetic Live tabs
Feeling This tabs
Good Times tabs
Baby One More Time tabs
Transvestite tabs
Adams Song(perfect) tabs


Guitar Tabs









All tabs are property and copyright of their owners. All tabs provided for educational purposes only. Privacy Policy, DMCA