Blink 182

Time Bass Tabs



More from Blink 182

Blink 182 Tabs
Blink 182 Chords
Blink 182 Bass
Blink 182 Lyrics

Date: Sun, 16 Nov 2003 19:29:00 EST
From: Atomicough7@aol.com
Subject: b/blink_182/time.btab

band:blink 182
song:time
album:buddha
label:kung fu records
standard tuning


mark fooled you again with the intro
|9---------9-9-9-16--------16161618--------18181814--------141414|
|7---------7-7-7-14--------14141416--------16161612--------121212|
|----------------------------------------------------------------|
|----------------------------------------------------------------|

|9---------9-9-9-16--------16161618--------1818181414141414141414|
|7---------7-7-7-14--------14141416--------161616121212120-0-0-0-|
|----------------------------------------------------------------|
|----------------------------------------------------------------|

|----------------------------------------------------------------|
|----------------------------------------------------------------|
|--------5-5-5-5-7-7-7-7-5-5-7-5---------5-5-5-5-7-7-7-7-7-5-4-2-|
|5-5-5-5-------------------------5-5-5-5-------------------------|

|----------------------------------------------------------------|
|----------------------------------------------------------------|
|--------5-5-5-5-7-7-7-7-5-5-7-5---------5-5-5-5-7-7-7-7-7-5-4-2-|
|5-5-5-5-------------------------5-5-5-5-------------------------|

|----------------------------------------------------------------|
|--------------------------------4-4-4-4-6-4---------------------|
|------------4-5-7-7-7-7-7-7-7-7-------------7-4-5-5-5-5-7-5-4---|
|5-5-5-5-5-7---------------------------------------------------4-|

|----------------------------------------------------------------|
|----------------------------------------------------------------|
|--------7-7-7-7---------5-5-5-5---------7-7-7-7---------5-4-2-0-|
|5-5-5-5---------2-2-2-2---------5-5-5-5---------2-2-2-2---------|

|----------------------------------------------------------------|
|----------------------------------------------------------------|
|--------7-7-7-7---------5-5-5-5---------7-7-7-7---------5-4-2-0-|
|5-5-5-5---------2-2-2-2---------5-5-5-5---------2-2-2-2---------|

|----------------------------------------------------------------|
|--------------------------------4-4-4-4-6-4---------------------|
|------------4-5-7-7-7-7-7-7-7-7-------------7-4-5-5-5-5-7-5-4---|
|5-5-5-5-5-7---------------------------------------------------4-|

|----------------------------------------------------------------|
|----------------------------------------------------------------|
|------------4-5-7-7-7-7-7-7-7-7-5-5-5-5-5-5-5-5-7-7-5-4-5-5-4---|
|5-5-5-5-5-7---------------------------------------------------7-|

|----------------------------------------------------------------|
|------------------------------------------------4-4---4-7-7-6-7-|
|------------4-5-7-7-7-7-7-7-7-7-5-5-4-5-7-7-5-7-----7-----------|
|5-5-5-5-5-7-----------------------------------------------------|

|----------------------------------------------------------------|
|----------------------------------------------------------------|
|--------5-5-5-5-7-7-7-7-5-5-7-5---------5-5-5-5-7-7-7-7-7-5-4-2-|
|5-5-5-5-------------------------5-5-5-5-------------------------|

|----------------------------------------------------------------|
|----------------------------------------------------------------|
|--------5-5-5-5-7-7-7-7-5-5-7-5---------5-5-5-5-7-7-7-7-7-5-4-2-|
|5-5-5-5-------------------------5-5-5-5-------------------------|

|----------------------------------------------------------------|
|--------------------------------4-4-4-4-6-4---------------------|
|------------4-5-7-7-7-7-7-7-7-7-------------7-4-5-5-5-5-7-5-4---|
|5-5-5-5-5-7---------------------------------------------------4-|

|----------------------------------------------------------------|
|----------------------------------------------------------------|
|--------7-7-7-7---------5-5-5-5---------7-7-7-7---------5-4-2-0-|
|5-5-5-5---------2-2-2-2---------5-5-5-5---------2-2-2-2---------|

|----------------------------------------------------------------|
|----------------------------------------------------------------|
|--------7-7-7-7---------5-5-5-5---------7-7-7-7---------5-4-2-0-|
|5-5-5-5---------2-2-2-2---------5-5-5-5---------2-2-2-2---------|

|----------------------------------------------------------------|
|--------------------------------4-4-4-4-6-4---------------------|
|------------4-5-7-7-7-7-7-7-7-7-------------7-4-5-5-5-5-7-5-4---|
|5-5-5-5-5-7---------------------------------------------------4-|

|----------------------------------------------------------------|
|----------------------------------------------------------------|
|------------4-5-7-7-7-7-7-7-7-7-5-5-5-5-5-5-5-5-7-7-5-4-5-5-4---|
|5-5-5-5-5-7---------------------------------------------------7-|

|----------------------------------------------------------------|
|------------------------------------------------4-4---4-7-7-6-7-|
|------------4-5-7-7-7-7-7-7-7-7-5-5-4-5-7-7-5-7-----7-----------|
|5-5-5-5-5-7-----------------------------------------------------|
Get this song at amazon.com      Ebay     Ringtones Ringtones  


Learn to play: Songwriting, Piano, Harmonica, Guitar
Also available at Muzikum: Blink 182 - Time lyrics

Related Blink 182 Bass Tabs

Reebok Commercial bass
Wirecked Him bass
Instrumental bass
Going Away To College bass
Girl Next Door bass
Blow Job bass
Feelin This bass
Another Girl Another Planet bass
The Grandpa Song bass
Family Reuinion bass
Kaleidoscope bass
Pathetic bass
Peggy Sue bass
Zulu bass
Time To Wake Up bass
Marlboro Man bass
Rich Lips bass
Go bass
Im Lost Without You bass
Easy Target bass


Guitar Tabs









All tabs are property and copyright of their owners. All tabs provided for educational purposes only. Privacy Policy, DMCA

Online converter - videoconverter.com