Blink 182

Time To Wake Up Bass Tabs



More from Blink 182

Blink 182 Tabs
Blink 182 Chords
Blink 182 Bass
Blink 182 Lyrics



Song: Time To Wake Up (Secret Track 14 on Airplane CD)
Band: Blink 182
Tabbed by Bruno Terra (bass_terra@hotmail.com)

* Well, if u see that the tab has something wrong, it's because i think
my bass isn't tunned right. And yes, i'm a too crappy bass player that
can't tune it by ear. *


Intro
G|-------------------|
D|-------------------|
A|-------------------|
E|-44--22--11--2--2--|

Intro 2/After Chorus
G|-----------------------|
D|-----------------------|
A|-4>-4>-----------------|
E|-------4>--2-22--4-44--|

Verse
G|-------------|
D|-------------|
A|-4>>---------|
E|-----4>--2>--|

Chorus
G|----------------|
D|----------------|
A|-4>-------------|
E|----1>--2>--4>--|

Bridge
G|--------------------------|
D|--------------------------|
A|---------------4>-4-------|
E|-6>--4--2>--4-------4>-4--|

Bridge 2
G|------------|
D|------------|
A|-4>-4-------|
E|------4>-4--|

Bridge 3
G|----------------------------|
D|----------------------------|
A|-4-4~------4-4~-------------|
E|------4-4~------4-4~--44-44-|

Outro
G|-----------|
D|-----------|
A|-4>--------|
E|----4>-4-4-|






Get this song at amazon.com      Ebay     Ringtones Ringtones  


Learn to play: Songwriting, Piano, Harmonica, Guitar
Also available at Muzikum: Blink 182 - Time To Wake Up lyrics

Related Blink 182 Bass Tabs

Sometimes bass
Adams Song (correct) bass
M+ms bass
Hold On bass
Man Overboard ( From The Tab Book) bass
This Song That Sucks bass
My Pet Sally bass
Tv bass
Lemmings bass
I'm Lost Without You bass
Anthem Part 2 bass
Carousel Live bass
Satan Tune bass
Peggy Sue Live bass
M And Ms bass
Dicklips bass
Stay Together For The Kids (with Optional Second Verse) bass
Carosel bass
Easy Target bass
The anthem pt2 bass


Guitar Tabs









All tabs are property and copyright of their owners. All tabs provided for educational purposes only. Privacy Policy, DMCA

Online converter - videoconverter.com