Blink 182

The Rockshow Bass Tabs



More from Blink 182

Blink 182 Tabs
Blink 182 Chords
Blink 182 Bass
Blink 182 Lyrics




A5 D5 E5
G|-----------------|-----------------|-----------------|-----------------|
D|-----------------|-----------------|-----------------|-----------------|
A|-0-0-0-0-0-0-0-0-|-0-0-0-0-0-0-0-0-|-5-5-5-5-5-5-5-5-|-7-7-7-7-7-7-7-7-|
E|-----------------|-----------------|-----------------|-----------------|
1 + 2 + 3 + 4 + 1 + 2 + 3 + 4 + 1 + 2 + 3 + 4 + 1 + 2 + 3 + 4 +

A5 D5 E5
G|-----------------|-----------------|-----------------|-----------------|
D|-----------------|-----------------|-----------------|-----------------|
A|-0-0-0-0-0-0-0-0-|-0-0-0-0-0-0-0-0-|-5-5-5-5-5-5-5-5-|-7-7-7-7-7-7-7-7-|
E|-----------------|-----------------|-----------------|-----------------|
1 + 2 + 3 + 4 + 1 + 2 + 3 + 4 + 1 + 2 + 3 + 4 + 1 + 2 + 3 + 4 +

A5
G|-----------------|-----------------|
D|-----------------|-----------------|
A|-0-0-0-0-0-0-0-0-|-0-0-0-0-0-0-0-0-|
E|-----------------|-----------------|
1 + 2 + 3 + 4 + 1 + 2 + 3 + 4 +

VERSE

Hanging out behind the club on the weekend,
Actin' stupid getting drunk with my best friends.
I couldn't wait for the summer and the Warped Tour.
I remember it's the first time that I saw her there.

A5 D5 E5
G|-----------------|-----------------|-----------------|-----------------|
D|-----------------|-----------------|-----------------|-----------------|
A|-0-0-0-0-0-0-0-0-|-0-0-0-0-0-0-0-0-|-5-5-5-5-5-5-5-5-|-7-7-7-7-7-7-7-7-|
E|-----------------|-----------------|-----------------|-----------------|
1 + 2 + 3 + 4 + 1 + 2 + 3 + 4 + 1 + 2 + 3 + 4 + 1 + 2 + 3 + 4 +

A5 D5 E5
G|-----------------|-----------------|-----------------|-----------------|
D|-----------------|-----------------|-----------------|-----------------|
A|-0-0-0-0-0-0-0-0-|-0-0-0-0-0-0-0-0-|-5-5-5-5-5-5-5-5-|-7-7-7-7-7-7-7-7-|
E|-----------------|-----------------|-----------------|-----------------|
1 + 2 + 3 + 4 + 1 + 2 + 3 + 4 + 1 + 2 + 3 + 4 + 1 + 2 + 3 + 4 +

INTERLUDE

A5 D5 E5
G|-----------------|-----------------|-----------------|-----------------|
D|-----------------|-----------------|-----------------|-----------------|
A|-0-0-0-0-0-0-0-0-|-0-0-0-0-0-0-0-0-|-5-5-5-5-5-5-5-5-|-7-7-7-7-7-7-7-7-|
E|-----------------|-----------------|-----------------|-----------------|
1 + 2 + 3 + 4 + 1 + 2 + 3 + 4 + 1 + 2 + 3 + 4 + 1 + 2 + 3 + 4 +

A5 D5 E5
G|-----------------|-----------------|-----------------|-----------------|
D|-----------------|-----------------|-----------------|-----------------|
A|-0-0-0-0-0-0-0-0-|-0-0-0-0-0-0-0-0-|-5-5-5-5-5-5-5-5-|-7-7-7-7-7-7-7-7-|
E|-----------------|-----------------|-----------------|-----------------|
1 + 2 + 3 + 4 + 1 + 2 + 3 + 4 + 1 + 2 + 3 + 4 + 1 + 2 + 3 + 4 +

VERSE

She's gettin' kicked out of school cause she's failing.
I'm kinda nervous cause I think all her friends hate me.
She's the one, she'll always be there.
She took my hand and that made it I swear.

A5 D5 E5
G|-----------------|-----------------|-----------------|-----------------|
D|-----------------|-----------------|-----------------|-----------------|
A|-0-0-0-0-0-0-0-0-|-0-0-0-0-0-0-0-0-|-5-5-5-5-5-5-5-5-|-7-7-7-7-7-7-7-7-|
E|-----------------|-----------------|-----------------|-----------------|
1 + 2 + 3 + 4 + 1 + 2 + 3 + 4 + 1 + 2 + 3 + 4 + 1 + 2 + 3 + 4 +

A5 D5 E5
G|-----------------|-----------------|-----------------|-----------------|
D|-----------------|-----------------|-----------------|-----------------|
A|-0-0-0-0-0-0-0-0-|-0-0-0-0-0-0-0-0-|-5-5-5-5-5-5-5-5-|-7-7-7-7-7-7-7-7-|
E|-----------------|-----------------|-----------------|-----------------|
1 + 2 + 3 + 4 + 1 + 2 + 3 + 4 + 1 + 2 + 3 + 4 + 1 + 2 + 3 + 4 +

CHORUS

Because I fell in love with the girl at the rock show,
She said "What?" and I told her that I didn't know,
Shes so cool, gonna sneak in through the window,
Everything's better when she's around.
Can't wait 'til her parents go out of town.
I fell in love with the girl at the rock show.

A5 F#5 D5 A5 F#5 D5
G|-----------------|-----------------|-----------------|-----------------|
D|-----------------|-4---4-2-0---0-0-|-----------------|-4---4-2-0---0-0-|
A|-0---0---0---0-0-|-----------------|-0---0---0---0-0-|-----------------|
E|-----------------|-----------------|-----------------|-----------------|
1 + 2 + 3 + 4 + 1 + 2 + 3 + 4 + 1 + 2 + 3 + 4 + 1 + 2 + 3 + 4 +

A5 F#5 D5 E5 D5
G|-----------------|-----------------|-----------------|-----------------|
D|-----------------|-4---4-2-0---0-0-|-2-2-2-2-2-2-2-2-|-0-0-0-0-0-0-0-0-|
A|-0---0---0---0-0-|-----------------|-----------------|-----------------|
E|-----------------|-----------------|-----------------|-----------------|
1 + 2 + 3 + 4 + 1 + 2 + 3 + 4 + 1 + 2 + 3 + 4 + 1 + 2 + 3 + 4 +

E5 D5 E5 D5 A/C#
G|-----------------|-----------------|-----------------|-----------------|
D|-2-2-2-2-2-2-2-2-|-0-0-0-0-0-0-0-0-|-2-2-2-2-2-2-2-2-|-0---------------|
A|-----------------|-----------------|-----------------|---------4-------|
E|-----------------|-----------------|-----------------|-----------------|
1 + 2 + 3 + 4 + 1 + 2 + 3 + 4 + 1 + 2 + 3 + 4 + 1 + 2 + 3 + 4 +

INTERLUDE

A5 D5 E5
G|-----------------|-----------------|-----------------|-----------------|
D|-----------------|-----------------|-----------------|-----------------|
A|-0-0-0-0-0-0-0-0-|-0-0-0-0-0-0-0-0-|-5-5-5-5-5-5-5-5-|-7-7-7-7-7-7-7-7-|
E|-----------------|-----------------|-----------------|-----------------|
1 + 2 + 3 + 4 + 1 + 2 + 3 + 4 + 1 + 2 + 3 + 4 + 1 + 2 + 3 + 4 +

A5 D5 E5
G|-----------------|-----------------|-----------------|-----------------|
D|-----------------|-----------------|-----------------|-----------------|
A|-0-0-0-0-0-0-0-0-|-0-0-0-0-0-0-0-0-|-5-5-5-5-5-5-5-5-|-7-7-7-7-7-7-7-7-|
E|-----------------|-----------------|-----------------|-----------------|
1 + 2 + 3 + 4 + 1 + 2 + 3 + 4 + 1 + 2 + 3 + 4 + 1 + 2 + 3 + 4 +

VERSE

When we said we were gonna move to Vegas,
I remember the look your mother gave us.
Seventeen without a purpose of direction.
We don't owe anyone a fucking explanation.

A5 D5 E5
G|-----------------|-----------------|-----------------|-----------------|
D|-----------------|-----------------|-----------------|-----------------|
A|-0-0-0-0-0-0-0-0-|-0-0-0-0-0-0-0-0-|-5-5-5-5-5-5-5-5-|-7-7-7-7-7-7-7-7-|
E|-----------------|-----------------|-----------------|-----------------|
1 + 2 + 3 + 4 + 1 + 2 + 3 + 4 + 1 + 2 + 3 + 4 + 1 + 2 + 3 + 4 +

A5 D5 E5
G|-----------------|-----------------|-----------------|-----------------|
D|-----------------|-----------------|-----------------|-----------------|
A|-0-0-0-0-0-0-0-0-|-0-0-0-0-0-0-0-0-|-5-5-5-5-5-5-5-5-|-7-7-7-7-7-7-7-7-|
E|-----------------|-----------------|-----------------|-----------------|
1 + 2 + 3 + 4 + 1 + 2 + 3 + 4 + 1 + 2 + 3 + 4 + 1 + 2 + 3 + 4 +

CHORUS

Because I fell in love with the girl at the rock show,
She said "What?" and I told her that I didn't know,
Shes so cool, gonna sneak in through the window,
Everything's better when she's around.
Can't wait 'til her parents go out of town.
I fell in love with the girl at the rock show.

A5 F#5 D5 A5 F#5 D5
G|-----------------|-----------------|-----------------|-----------------|
D|-----------------|-4---4-2-0---0-0-|-----------------|-4---4-2-0---0-0-|
A|-0---0---0---0-0-|-----------------|-0---0---0---0-0-|-----------------|
E|-----------------|-----------------|-----------------|-----------------|
1 + 2 + 3 + 4 + 1 + 2 + 3 + 4 + 1 + 2 + 3 + 4 + 1 + 2 + 3 + 4 +

A5 F#5 D5 E5 D5
G|-----------------|-----------------|-----------------|-----------------|
D|-----------------|-4---4-2-0---0-0-|-2-2-2-2-2-2-2-2-|-0-0-0-0-0-0-0-0-|
A|-0---0---0---0-0-|-----------------|-----------------|-----------------|
E|-----------------|-----------------|-----------------|-----------------|
1 + 2 + 3 + 4 + 1 + 2 + 3 + 4 + 1 + 2 + 3 + 4 + 1 + 2 + 3 + 4 +

E5 D5 E5 D5 A/C#
G|-----------------|-----------------|-----------------|-----------------|
D|-2-2-2-2-2-2-2-2-|-0-0-0-0-0-0-0-0-|-2-2-2-2-2-2-2-2-|-0---------------|
A|-----------------|-----------------|-----------------|---------4-------|
E|-----------------|-----------------|-----------------|-----------------|
1 + 2 + 3 + 4 + 1 + 2 + 3 + 4 + 1 + 2 + 3 + 4 + 1 + 2 + 3 + 4 +

BRIDGE

Black and white picture of her on my wall,
I waited for her call, She always kept me waiting,
And if I ever got another chance,
I'd still ask her to dance,
Because she kept me waiting.

F#5 Dmaj7
G|-----------------|-----------------|-----------------|-----------------|
D|-4-4-4-4-4-4-4-4-|-4-4-4-4-4-4-2-2-|-0-0-0-0-0-0-0-0-|-2-2-0-0---------|
A|-----------------|-----------------|-----------------|---------4-4-2-2-|
E|-----------------|-----------------|-----------------|-----------------|
1 + 2 + 3 + 4 + 1 + 2 + 3 + 4 + 1 + 2 + 3 + 4 + 1 + 2 + 3 + 4 +

A A/E
G|-----------------|-----------------|-----------------|-----------------|
D|-----------------|-----------------|-2-2-2-2-2-2-2-2-|-2-2-2-2-0-0-2-2-|
A|-0-0-0-0-0-0-0-0-|-0-0-0-0-2-2-4-4-|-----------------|-----------------|
E|-----------------|-----------------|-----------------|-----------------|
1 + 2 + 3 + 4 + 1 + 2 + 3 + 4 + 1 + 2 + 3 + 4 + 1 + 2 + 3 + 4 +

F#5 Dmaj7
G|-----------------|-----------------|-----------------|-----------------|
D|-4-4-4-4-4-4-4-4-|-4-4-4-4-4-4-2-2-|-0-0-0-0-0-0-0-0-|-2-2-0-0---------|
A|-----------------|-----------------|-----------------|---------4-4-2-2-|
E|-----------------|-----------------|-----------------|-----------------|
1 + 2 + 3 + 4 + 1 + 2 + 3 + 4 + 1 + 2 + 3 + 4 + 1 + 2 + 3 + 4 +

A A/E
G|-----------------|-----------------|-----------------|-----------------|
D|-----------------|-----------------|-2-2-2-2-2-2-2-2-|-2-2-2-2-0-0-2-2-|
A|-0-0-0-0-0-0-0-0-|-0-0-0-0-2-2-4-4-|-----------------|-----------------|
E|-----------------|-----------------|-----------------|-----------------|
1 + 2 + 3 + 4 + 1 + 2 + 3 + 4 + 1 + 2 + 3 + 4 + 1 + 2 + 3 + 4 +



E5 D5 E5 D5 A/C#
G|-----------------|-----------------|-----------------|-----------------|
D|-2-2-2-2-2-2-2-2-|-0-0-0-0-0-0-0-0-|-2-2-2-2-2-2-2-2-|-0---------------|
A|-----------------|-----------------|-----------------|---------4-------|
E|-----------------|-----------------|-----------------|-----------------|
1 + 2 + 3 + 4 + 1 + 2 + 3 + 4 + 1 + 2 + 3 + 4 + 1 + 2 + 3 + 4 +

CHORUS

Because I fell in love with the girl at the rock show,
She said "What?" and I told her that I didn't know,
Shes so cool, gonna sneak in through the window,
Everything's better when she's around.
Can't wait 'til her parents go out of town.
I fell in love with the girl at the rock show.

A5 F#5 D5 A5 F#5 D5
G|-----------------|-----------------|-----------------|-----------------|
D|-----------------|-4---4-2-0---0-0-|-----------------|-4---4-2-0---0-0-|
A|-0---0---0---0-0-|-----------------|-0---0---0---0-0-|-----------------|
E|-----------------|-----------------|-----------------|-----------------|
1 + 2 + 3 + 4 + 1 + 2 + 3 + 4 + 1 + 2 + 3 + 4 + 1 + 2 + 3 + 4 +

A5 F#5 D5 E5 D5
G|-----------------|-----------------|-----------------|-----------------|
D|-----------------|-4---4-2-0---0-0-|-2-2-2-2-2-2-2-2-|-0-0-0-0-0-0-0-0-|
A|-0---0---0---0-0-|-----------------|-----------------|-----------------|
E|-----------------|-----------------|-----------------|-----------------|
1 + 2 + 3 + 4 + 1 + 2 + 3 + 4 + 1 + 2 + 3 + 4 + 1 + 2 + 3 + 4 +

E5 D5 E5 D5 A/C#
G|-----------------|-----------------|-----------------|-----------------|
D|-2-2-2-2-2-2-2-2-|-0-0-0-0-0-0-0-0-|-2-2-2-2-2-2-2-2-|-0---------------|
A|-----------------|-----------------|-----------------|---------4-------|
E|-----------------|-----------------|-----------------|-----------------|
1 + 2 + 3 + 4 + 1 + 2 + 3 + 4 + 1 + 2 + 3 + 4 + 1 + 2 + 3 + 4 +

OUTRO

With the girl at the rock show.
With the girl at the rock show.
With the girl at the rock show.
(I'll never for get tonight)
With the girl at the rock show.
(I'll never for get tonight)
With the girl at the rock show.
(I'll never for get tonight)
With the girl at the rock show.
(I'll never for get tonight)

A5 D5 E5
G|-----------------|-----------------|-----------------|-----------------|
D|-----------------|-----------------|-----------------|-----------------|
A|-0-0-0-0-0-0-0-0-|-0-0-0-0-0-0-0-0-|-5-5-5-5-5-5-5-5-|-7-7-7-7-7-7-7-7-|
E|-----------------|-----------------|-----------------|-----------------|
1 + 2 + 3 + 4 + 1 + 2 + 3 + 4 + 1 + 2 + 3 + 4 + 1 + 2 + 3 + 4 +

A5 D5 E5
G|-----------------|-----------------|-----------------|-----------------|
D|-----------------|-----------------|-----------------|-----------------|
A|-0-0-0-0-0-0-0-0-|-0-0-0-0-0-0-0-0-|-5-5-5-5-5-5-5-5-|-7-7-7-7-7-7-7-7-|
E|-----------------|-----------------|-----------------|-----------------|
1 + 2 + 3 + 4 + 1 + 2 + 3 + 4 + 1 + 2 + 3 + 4 + 1 + 2 + 3 + 4 +

A5 D5 E5
G|-----------------|-----------------|-----------------|-----------------|
D|-----------------|-----------------|-----------------|-----------------|
A|-0-0-0-0-0-0-0-0-|-0-0-0-0-0-0-0-0-|-5-5-5-5-5-5-5-5-|-7-7-7-7-7-7-7-7-|
E|-----------------|-----------------|-----------------|-----------------|
1 + 2 + 3 + 4 + 1 + 2 + 3 + 4 + 1 + 2 + 3 + 4 + 1 + 2 + 3 + 4 +

A5 D5 E5
G|-----------------|-----------------|-----------------|-----------------|
D|-----------------|-----------------|-----------------|-----------------|
A|-0-0-0-0-0-0-0-0-|-0-0-0-0-0-0-0-0-|-5-5-5-5-5-5-5-5-|-7-7-7-7-7-7-7-7-|
E|-----------------|-----------------|-----------------|-----------------|
1 + 2 + 3 + 4 + 1 + 2 + 3 + 4 + 1 + 2 + 3 + 4 + 1 + 2 + 3 + 4 +

A5 D5 E5
G|-----------------|-----------------|-----------------|-----------------|
D|-----------------|-----------------|-----------------|-----------------|
A|-0-0-0-0-0-0-0-0-|-0-0-0-0-0-0-0-0-|-5-5-5-5-5-5-5-5-|-7-7-7-7-7-7-7-7-|
E|-----------------|-----------------|-----------------|-----------------|
1 + 2 + 3 + 4 + 1 + 2 + 3 + 4 + 1 + 2 + 3 + 4 + 1 + 2 + 3 + 4 +



Get this song at amazon.com      Ebay     Ringtones Ringtones  


Learn to play: Songwriting, Piano, Harmonica, Guitar
More Blink 182 lyrics available at Muzikum

Related Blink 182 Bass Tabs

Degenerate bass
Anthem Part 2 bass
Transvestite bass
Enthused bass
Sex With His Sister bass
Enema Of The State Full Album - Bass Tab bass
M&m's bass
Dude Ranch Full Album - Bass Tab bass
Wirecked Him bass
Adams Song bass
Penetrated bass
Peggy Sue Live bass
The anthem pt2 bass
Action(feeling This) bass
The Country Song bass
Love Is Dangerous bass
Stay Together 4 The Kids bass
Pathetic bass
I Miss You (new Complete Version) bass
Album bass


Guitar Tabs









All tabs are property and copyright of their owners. All tabs provided for educational purposes only. Privacy Policy, DMCA