Blink 182

The Rock Show (easy) Bass Tabs



More from Blink 182

Blink 182 Tabs
Blink 182 Chords
Blink 182 Bass
Blink 182 Lyrics




“The Rock Show”
Blink-182
Order:
Intro: Intro
g|--------|--------|--------|--------| Verse 1
d|--------|--------|--------|--------| x2 Interlude
a|00000000|00000000|55555555|77777777| Verse 2
e|--------|--------|--------|--------| Chorus
Interlude
g|--------|--------| Verse 3
d|--------|--------| Chorus
a|00000000|00000000| Bridge
e|--------|--------| Outro

Verse
g|--------|--------|--------|--------|
d|--------|--------|--------|--------| x2
a|00000000|00000000|55555555|77777777|
e|--------|--------|--------|--------|

Interlude
g|--------|--------|--------|--------|
d|--------|--------|--------|--------| x2
a|00000000|00000000|55555555|77777777|
e|--------|--------|--------|--------|

Chorus:
g|--------|--------|--------|--------|
d|--------|4-420-00|--------|4-420-00|
a|0-0-0-00|--------|0-0-0-00|--------|
e|--------|--------|--------|--------|

g|--------|--------|--------|--------|
d|--------|4-420-00|22222222|00000000|
a|0-0-0-00|--------|--------|--------|
e|--------|--------|--------|--------|

g|--------|--------|--------|--------|
d|22222222|00000000|22222222|0-------|
a|--------|--------|--------|----4---|
e|--------|--------|--------|--------|

Bridge
g|--------|--------|--------|--------|
d|44444444|44444422|00000000|2200----| x4
a|--------|--------|--------|----4422|
e|--------|--------|--------|--------|

Outro x5
g|--------|--------|--------|--------|
d|--------|--------|--------|--------|
a|00000000|00000000|55555555|77777777|
e|--------|--------|--------|--------|



Get this song at amazon.com      Ebay     Ringtones Ringtones  


Learn to play: Songwriting, Piano, Harmonica, Guitar
More Blink 182 lyrics available at Muzikum

Related Blink 182 Bass Tabs

After Midnight Live bass
Blow Job bass
Lemmings bass
Depends bass
Happy Holidays U B****** bass
Dumpweed bass
Dancing With Myself bass
Here\'s Your Letter bass
T V bass
Whats My Age Again bass
Action bass
Romeo And Rebecca bass
Dammit Live (warped Tour) bass
Wirecked Him bass
M + Ms 1000% bass
Mutt bass
Sex With His Sister bass
Fuck A Dog bass
Enthused bass
Dick Lips bass


Guitar Tabs









All tabs are property and copyright of their owners. All tabs provided for educational purposes only. Privacy Policy, DMCA