Blink 182

The Rock Show Live Tabs



More from Blink 182

Blink 182 Tabs
Blink 182 Chords
Blink 182 Bass
Blink 182 Lyrics



Song: The Rock Show Live
Band: Blink 182

I have the dots for palm mute or I have them ahead a time

Intro 1: Distorted
e|-------------------------------------}
B|-------------------------------------}
G|-------------------------------------}
D|-----2--0--------------2--0----2-----} x2
A|-0000-00-00-4-0000-0000-00-00-4-4-0--}
E|-------------------------------------}
Intro 2: Distorted PM
e|---------------------|
B|---------------------|
G|---------------------|
D|-7777777777777777----| x1
A|-7777777777777777----|
E|-5555555555555555----|


Verse 1: Distorted
e|-------------------------------------------|
B|-------------------------------------------|
G|--------------------7-77777777-9-99999999--|
D|-7-7777777777777777-7-77777777-9-99999999--| x2
A|-7-7777777777777777-5-55555555-7-77777777--|
E|-5-5555555555555555------------------------|
................ ........ ........

Intro 1: x1

Verse 2: Distorted, Bass does verse
e|------------|
B|------------|
G|------------|
D|-7~~~~~-----| x1
A|-7~~~~~-----|
E|-5~~~~~-----|

Chorus: Distorted
e|------------------------}
B|------------------------}
G|---------------7-7------}
D|-7-7-7-7--4-4--7-7------} x3
A|-7-7-7-7--4-4--5-5------}
E|-5-5-5-5--2-2-----------}
Chorus 2: Distorted
e|-----------------------------------------------------|
B|-----------------------------------------------------|
G|------------77777777-44444444-77777777-44444444-7-6--|
D|-2-22222222-77777777-44444444-77777777-44444444-7-6--| x1
A|-2-22222222-55555555-22222222-55555555-22222222-5-4--|
E|-0-00000000------------------------------------------|
........ ........ ........ ........ ........

Intro 1: x2

Verse 3: Distorted
e|----------------------------------------------|
B|----------------------------------------------|
G|-----------------------7-77777777-7-----------|
D|-7-77777777------------7-77777777-7-----------| x2
A|-7-77777777------------5-55555555-9-x-9-x-5---|
E|-5-55555555-5-x-5-x-5-------------------------|
........ ........

Chorus 1: Distorted x3
Chorus 2: Distorted x1

Interlude: Clean
e|-------------|
B|-2~--2-3-----|
G|--2~--2-2----|
D|-------------| x8
A|-------------|
E|-------------|

Chorus 1: Distorted x3
Chorus 2: Distorted x1

Intro 1: Distorted x4

End: Distorted
e|---------|
B|---------|
G|---------|
D|-7~~--7--| x1
A|-7~~--7--|
E|-5~~--5--|

I hope you like my tab, It's 117.5% Right!


Get this song at amazon.com      Ebay     Ringtones Ringtones  


Learn to play: Songwriting, Piano, Harmonica, Guitar
More Blink 182 lyrics available at Muzikum

Related Blink 182 Tabs

Hold On tabs
Go tabs
Waggy tabs
Always tabs
Josie Live tabs
Fentoozler tabs
Another Girl Another Planet tabs
Cacaphony tabs
Peggy Sue Live Solo tabs
Touchdown Boy Intro tabs
Pathetic Live tabs
Adams Song Intro2 tabs
Here\'s Your Letter tabs
Marks Boyfriend tabs
Don't Tell Me That Its Over tabs
Dammit (live) tabs
I'm Sorry tabs
Grampa Is An Asshole tabs
Anthem Intro tabs
Marlboro Man tabs


Guitar Tabs









All tabs are property and copyright of their owners. All tabs provided for educational purposes only. Privacy Policy, DMCA