Blink 182

The Party Song Bass Tabs



More from Blink 182

Blink 182 Tabs
Blink 182 Chords
Blink 182 Bass
Blink 182 Lyrics



Party song listen to the song for help on timing i've given you some words to help you get
timing right

(Do you want to...)
G|-------------------------------------------------------------------
D|-----------2-222222---------2-222222-------------------------------
A|--2-222222----------4-44444----------------------------------------
E|-------------------------------------------------------------------

(And then in the backyard...)
G|-------------------------------------------------------------------
D|-----------22222222---------22222222-------------------------------
A|--22222222----------4444444----------------------------------------
E|-------------------------------------------------------------------

(And then I saw...)
G|-------------------------------------------------------------------
D|--4~--2-1----2-1----2-1--------------------------------------------
A|----------2~-----2~-----2~----2-4----------------------------------
E|-------------------------------------------------------------------

(She might be the one...)
G|-------------------------------------------------------------------
D|-------------------------------------------------------------------
A|-22222-44444--22222-44444--22222-44444--2222-4---------------------
E|-------------------------------------------------------------------

(Some girls try to hard...)
G|-------------------------------------------------------------------
D|---------2-1--------2-1--------------------------------------------
A|--222222-----444444-----4-222222-----------------------------------
E|-------------------------------------------------------------------

(2x)
G|-------------------------------------------------------------------
D|--2-1--------2-1---------------------------------------------------
A|------444444-----4-222222------------------------------------------
E|-------------------------------------------------------------------

G|-------------------------------------------------------------------
D|--2-1--------2-1---------------------------------------------------
A|------444444-----4-2-----------------------------------------------
E|-------------------------------------------------------------------

(I couldn't believe...)
G|-------------------------------------------------------------------
D|-----------22222222---------22222222-------------------------------
A|--22222222----------4444444----------------------------------------
E|-------------------------------------------------------------------

(And then I saw...)
G|-------------------------------------------------------------------
D|--4~--2-1----2-1----2-1--------------------------------------------
A|----------2~-----2~-----2~----2-4----------------------------------
E|-------------------------------------------------------------------

(This girl's not the ...)
G|-------------------------------------------------------------------
D|-------------------------------------------------------------------
A|-22222-44444--22222-44444--22222-44444--2222-4---------------------
E|-------------------------------------------------------------------

(Some girls try to hard...)
G|-------------------------------------------------------------------
D|---------2-1--------2-1--------------------------------------------
A|--222222-----444444-----4-222222-----------------------------------
E|-------------------------------------------------------------------

G|---------------------------------------------------------------(x4)
D|--2-1--------2-1-----------------------------------------------
A|------444444-----4-222222--------------------------------------
E|---------------------------------------------------------------

G|---------------------------------------------------------------
D|--2-1--------2-1-----------------------------------------------
A|------444444-----4-2-------------------------------------------
E|---------------------------------------------------------------



Get this song at amazon.com      Ebay     Ringtones Ringtones  


Learn to play: Songwriting, Piano, Harmonica, Guitar
Also available at Muzikum: Blink 182 - The Party Song lyrics

Related Blink 182 Bass Tabs

Point Of View bass
Anthem Part 2 (power Chord Style For People Who Get Bored) bass
Dysentery Gary bass
M + Ms 1000% bass
Wrecked Him bass
Voyer bass
Fentoozler bass
American Pie Theme Song bass
I Know A Guy Tom, Mark, And Travis Show bass
Dont bass
Going Away To College bass
I Miss You bass
Anthem Prt Ii bass
Reckless Abandon bass
All Of This bass
Anthem bass
I Won't Be Home For Christmas bass
Family Reunion(live) bass
Carosel bass
Stay Together 4 The Kids bass


Guitar Tabs









All tabs are property and copyright of their owners. All tabs provided for educational purposes only. Privacy Policy, DMCA