Blink 182

The Grandpa Song Tabs



More from Blink 182

Blink 182 Tabs
Blink 182 Chords
Blink 182 Bass
Blink 182 Lyrics




Blink 182
the grandpa song
tabbed by: Rob/Domi








E||--2-----0-----2-----0-----|--------------------------|
B||-----3-----3-----3-----3--|--3--3--3/-5--2-----2-----|
G||--------------------------|-----0-----------2-----2--|
D||--0-----0-----0-----0-----|--------------------------|
A||--------------------------|--------------0-----0-----|
E||--------------------------|--3-----3--5--------------|



--------------------------|--------------------------|-----------------------|
--3-----3-----3-----3-----|--3-----3-----2-----2-----|--2-----2-----0--------|
-----0-----0-----0-----0--|-----2-----2-----2-----2--|-----2-----2-----------|
--------------------------|--------------------------|-----------------------|
--------------------------|--0-----0-----0-----0-----|--0-----0-----0--------|
--3-----3-----3-----3-----|--------------------------|-----------------------|



--2-----0-----2-----0-----|------------------------|-------------------|
-----3-----3-----3-----3--|--3-----3/-5--2----3----|--3----------------|
--------------------------|-----0------------------|--2----------------|
--0-----0-----0-----0-----|------------------------|--0----------------|
--------------------------|--------------0----0----|-------------------|
--------------------------|--3-----3/-5------------|-------------------|



Get this song at amazon.com      Ebay     Ringtones Ringtones  


Learn to play: Songwriting, Piano, Harmonica, Guitar
Also available at Muzikum: Blink 182 - The Grandpa Song lyrics

Related Blink 182 Tabs

The Country Song Solo tabs
Anthem Part 2 tabs
Blow Job Song tabs
Dont Leave Me tabs
F A Dog tabs
Good Times tabs
13 Miles tabs
Big Day Out tabs
Zulu tabs
Fck A Dog tabs
The Rock Show Live tabs
Point Of View tabs
Chesire Cat tabs
Dammit Solo tabs
Mms tabs
Dont Leave Me (acoustic) tabs
Enema Of The State Album tabs
Aliens Exist tabs
Man Overboard tabs
Adams Song Interlude tabs


Guitar Tabs









All tabs are property and copyright of their owners. All tabs provided for educational purposes only. Privacy Policy, DMCA