Blink 182

The Country Song Tabs



More from Blink 182

Blink 182 Tabs
Blink 182 Chords
Blink 182 Bass
Blink 182 Lyrics



-------------------------------------------------------------------------------
THE COUNTRY SONG - Blink-182
-------------------------------------------------------------------------------

By:Cody l
Song: The Country Song
Email:snowboardinstar69@hotmail.com

-Bass comes in first-
Then guitar comes in with this:

Intro:
e|---------------------------------------------------------------------------|
B|---------------------------------------------------------------------------|
G|---------------------------------------------------------------------------| 1x
D|-----------------------------5---------------------------------------------|
A|------------------------3--------------------------------------------------|
E|-----3-----5-----7---------------------------------------------------------|

Riff 1
e|---------------------------------------------------------------------------|
B|---------------------------------------------------------------------------|
G|-----------------------------5---------------------------------------------|
D|-----------------------------5---------------------------------------------| 1x
A|---------------------3-----------------------------------------------------|
E|-----3----5----7-----------------------------------------------------------|

Riff 2
e|---------------------------------------------------------------------------|
B|---------------------------------------------------------------------------|
G|-------------------------5----------------5-------------5--------------5---|
D|-------------------------5----5-5---------5-----5-5-----5-----5-5------5---| 4x
A|-------------------------3----------------3-------------3--------------3---|
E|-----3-----5-----7------------3-3---------------3-3-----------3-3----------|

e|---------------------------------------------------------------------------|
B|---------------------------------------------------------------------------|
G|---------------------------------------------------------------------------|
D|---------------------------------------------------------------------------|
A|---------------------------------------------------------------------------|
E|-----3-----5-----7---------------------------------------------------------| Repeat Riff 2

Vocals:
Take of your pants........Dad....
Your Penis is the biggest thing, My butts ever had...
And i know...........It feels good.......
Shut Your F#%king Face Uncle F#%ker

-------------------------------------------------------------------------------


Get this song at amazon.com      Ebay     Ringtones Ringtones  


Learn to play: Songwriting, Piano, Harmonica, Guitar
Also available at Muzikum: Blink 182 - The Country Song lyrics

Related Blink 182 Tabs

Action Live tabs
Chesire Cat tabs
Stockholm Syndrome tabs
Girl Next Door tabs
Dont tabs
Cacophony Intro tabs
The Girl Next Door tabs
Dumpweed tabs
Time To Break Up tabs
Heres Your Letter tabs
Dysentery Gary Acoustic tabs
Romeo And Rebecca tabs
Dancing With Myself tabs
Life Is So Boring tabs
Dont Leave Me tabs
Toast And Bananas tabs
Alone tabs
Dude Ranch tabs
Fck A Dog tabs
Romeo & Rebecca tabs


Guitar Tabs









All tabs are property and copyright of their owners. All tabs provided for educational purposes only. Privacy Policy, DMCA