Blink 182

Take Off Your Pants & Jaket Tabs



More from Blink 182

Blink 182 Tabs
Blink 182 Chords
Blink 182 Bass
Blink 182 Lyrics

Anthem Part Two


Intro (part 1)
----------------------------------------------
---8--8--6--6--5--5--6--6---------------------
----5--5--5--5--5--5--5--5--------------------
----------------------------------------------
----------------------------------------------
----------------------------------------------

OR Intro (part 1)
3--3--1--1--0--0--1--1------------------------
-1--1--1--1--1--1--1--1-----------------------
----------------------------------------------
----------------------------------------------
----------------------------------------------
----------------------------------------------

Intro (part two) palm muted
----------------------------------------------
----------------------------------------------
----------------------------------------------
----0h3----2---0h3--2-0h3--2--0--0-----------
-33-----33---33---33-33---33-33-33------------
----------------------------------------------

Pre-Verse
----------------------------------------------
----------------------------------------------
9-10-957-9-10-957-9-10-957-9-10-5-------------
x-x--xxx-x-x--xxx-x-x--xxx-x-x--x-------------
7-8--735-7-8--735-7-8--735-7-8--3-------------
----------------------------------------------

Verse (come in after two lines) palm mute mostly except
for when you come in with those high power chords
---------------------------------------------------------------
---------------------------------------------------------------
-99-7-555555555555--------------55555555555--------------------
-99-7-555555555555-777777-333333-55555555555-77777777---3333333
-77-5-333333333333-777777-333333-33333333333-77777777---3333333
-------------------555555-111111-------------55555555---1111111

Chorus
----------------------------------------------
----------------------------------------------
---------5555---------------------------------
-222-333-5555-5555----------------------------
-222-333-3333-5555----------------------------
-000-111------3333----------------------------

Post Chorus (We'll never give up, it's no use,
if we're ***ed up your to blame) (palm muted)
---------------------------------------------------------------
---------------------------------------------------------------
------------------5555555--------------------------------------
-77777777-3333333-5555555-5555555-7777777-3--------------------
-77777777-3333333-3333333-5555555-7777777-3--------------------
-55555555-1111111---------3333333-5555555-1--------------------

Order-
Intro (parts 1 and 2)
Pre-Verse
Verse
(bass line)
Verse
(bass line)
Chorus
Post Chorus
Pre-Verse
Verse
(bass line)
Chorus
Post Chorus
Bass solo
Chorus
Post Chorus
Intro Part Two

------------------------------------------------------------
Online songs


Standard tuning

Verse (0:09)(after bass solo first 8 measures)
Gtr.1(clean)
1:----------------|----------------|----------------|----------------|
2:----------------|----------------|----------------|----------------|
3:----------------|----------------|----------------|----------------|
4:----0-----------|----------------|----0-----------|----------------|
5:--4---4-7---4---|--5-5---5---5---|--4---4-7---4---|--5-5---5---5---|
6:5---------------|5-----5---5-----|5---------------|5-----5---5-----|
Everything you wished came true....

1:----------------|----------------|----------------|----------------|
2:----------------|----------------|----------------|----------------|
3:----------------|----------------|----------------|----------------|
4:----0-----------|----------------|----0-----------|2---------------|
5:--4---4-7---4---|--5-5---5---5---|--4---4-7---4---|2---------------|
6:5---------------|5-----5---5-----|5---------------|0---------------|


Interlude (0:20)
Gtr.1(dist)
1:----------------|----------------|----------------|----------------|
2:----------------|----------------|----------------|----------------|
3:----------------|----------------|----------------|----------------|
4:----------------|----------------|----------------|----------------|
5:--4-----7---4---|--5-----5---5---|--4-----7---4---|--5-----5---5---|
6:5---5-5---5-----|5---5-5---5-----|5---5-5---5-----|5---5-5---5-----|
. . . . . . . . . . . . . . . .

1:----------------|----------------|----------------|----------------|
2:----------------|----------------|----------------|----------------|
3:----------------|----------------|----------------|--7---7---7---7-|
4:----------------|----------------|----------------|--7---7---7---7-|
5:--4-----7---4---|--5-----5---5---|--4-----7---4---|--5---5---5---5-|
6:5---5-5---5-----|5---5-5---5-----|5---5-5---5-----|----------------|
. . . . . . . . . . . .


Verse (0:30)
Gtr.1(dist)
1:----------------|----------------|----------------|----------------|
2:----------------|----------------|----------------|----------------|
3:----------------|----------------|----------------|----------------|
4:7---------------|----------------|----------------|----------------|
5:x---------------|----------------|----------------|----------------|
6:5---------------|----------------|----------------|----------------|
Why do you still keep it around...

1:----------------|----------------|----------------|----------------|
2:----------------|----------------|----------------|----------------|
3:----------------|----------------|----------------|----------------|
4:----------------|----------------|----------------|----------------|
5:----------------|----------------|----------------|----------------|
6:----------------|----------------|----------------|----------------|


Interlude (0:40)
Gtr.1(dist)
1:----------------|----------------|----------------|----------------|
2:----------------|----------------|----------------|----------------|
3:----------------|----------------|----------------|----------------|
4:----------------|----------------|----------------|----------------|
5:--4-----7---4---|--5-----5---5---|--4-----7---4---|--5-----5---5---|
6:5---5-5---------|5---5-5---------|5---5-5---------|5---5-5---------|
. . . . . . . . . . . .

1:----------------|----------------|----------------|----------------|
2:----------------|----------------|----------------|----------------|
3:----------------|----------------|----------------|--7---7---7---7-|
4:----------------|----------------|----------------|--7---7---7---7-|
5:--4-----7---4---|--5-----5---5---|--4-----7---4---|--5---5---5---5-|
6:5---5-5---------|5---5-5---------|5---5-5---------|----------------|
. . . . . . . . .



Verse (0:49)
Gtr.1(dist)
1:----------------|----------------|----------------|----------------|
2:----------------|----------------|----------------|----------------|
3:----------------|----------------|----------------|----------------|
4:7---------------|----------------|----------------|----------------|
5:x---------------|----------------|----------------|----------------|
6:5---------------|----------------|----------------|----------------|
Why am I still hanging around...

1:----------------|----------------|----------------|----------------|
2:----------------|----------------|----------------|----------------|
3:----------------|----------------|----------------|----------------|
4:----------------|----------------|----------------|----------------|
5:----------------|----------------|----------------|x\--------------|
6:----------------|----------------|----------------|x\--------------|
pick scrape


Chorus (0:59)
Gtr.1(dist)
1:----------------|----------------|----------------|----------------|
2:----------------|----------------|----------------|----------------|
3:7---7-7-7-7-7-7-|----------------|9---9-9-9-9-9-9-|7---7-7-7-7-7-7-|
4:7---7-7-7-7-7-7-|7---7-7-7-7-7-7-|9---9-9-9-9-9-9-|7---7-7-7-7-7-7-|
5:5---5-5-5-5-5-5-|7---7-7-7-7-7-7-|7---7-7-7-7-7-7-|5---5-5-5-5-5-5-|
6:----------------|5---5-5-5-5-5-5-|----------------|----------------|
Please don't remind me...

1:----------------|----------------|----------------|----------------|
2:----------------|----------------|----------------|----------------|
3:7---7-7-7-7-7-7-|----------------|9---9-9-9-9-9-9-|7---7-7-7-7-7-7-|
4:7---7-7-7-7-7-7-|7---7-7-7-7-7-7-|9---9-9-9-9-9-9-|7---7-7-7-7-7-7-|
5:5---5-5-5-5-5-5-|7---7-7-7-7-7-7-|7---7-7-7-7-7-7-|5---5-5-5-5-5-5-|
6:----------------|5---5-5-5-5-5-5-|----------------|----------------|


Verse (1:09)
Gtr.1(dist)
1:----------------|----------------|----------------|----------------|
2:----------------|----------------|----------------|----------------|
3:----------------|----------------|----------------|----------------|
4:7---------------|----------------|----------------|----------------|
5:x---------------|----------------|----------------|----------------|
6:5---------------|----------------|----------------|----------------|
And if we can have another day...

1:----------------|----------------|----------------|----------------|
2:----------------|----------------|----------------|----------------|
3:----------------|----------------|----------------|----------------|
4:----------------|----------------|----------------|----------------|
5:----------------|----------------|----------------|x\--------------|
6:----------------|----------------|----------------|x\--------------|
pick scrape


Chorus (1:19)
Gtr.1(dist)
1:----------------|----------------|----------------|----------------|
2:----------------|----------------|----------------|----------------|
3:7---7-7-7-7-7-7-|----------------|9---9-9-9-9-9-9-|7---7-7-7-7-7-7-|
4:7---7-7-7-7-7-7-|7---7-7-7-7-7-7-|9---9-9-9-9-9-9-|7---7-7-7-7-7-7-|
5:5---5-5-5-5-5-5-|7---7-7-7-7-7-7-|7---7-7-7-7-7-7-|5---5-5-5-5-5-5-|
6:----------------|5---5-5-5-5-5-5-|----------------|----------------|
Please don't remind me...

1:----------------|----------------|----------------|----------------|
2:----------------|----------------|----------------|----------------|
3:7---7-7-7-7-7-7-|----------------|9---9-9-9-9-9-9-|7---7-7-7-7-7-7-|
4:7---7-7-7-7-7-7-|7---7-7-7-7-7-7-|9---9-9-9-9-9-9-|7---7-7-7-7-7-7-|
5:5---5-5-5-5-5-5-|7---7-7-7-7-7-7-|7---7-7-7-7-7-7-|5---5-5-5-5-5-5-|
6:----------------|5---5-5-5-5-5-5-|----------------|----------------|

1:----------------|----------------|----------------|----------------|
2:----------------|----------------|----------------|----------------|
3:7---7-7-7-7-7-7-|----------------|----9---9-9-9-9-|7---7-7-7-7-7-7-|
4:7---7-7-7-7-7-7-|7---7-7-7-7-7-7-|----9---9-9-9-9-|7---7-7-7-7-7-7-|
5:5---5-5-5-5-5-5-|7---7-7-7-7-7-7-|----7---7-7-7-7-|5---5-5-5-5-5-5-|
6:----------------|5---5-5-5-5-5-5-|----------------|----------------|

1:----------------|----------------|----------------|----------------|
2:----------------|----------------|----------------|----------------|
3:7---7-7-7-7-7-7-|----------------|----9---9-9-9-9-|7---7-7-7-7-7-7-|
4:7---7-7-7-7-7-7-|7---7-7-7-7-7-7-|----9---9-9-9-9-|7---7-7-7-7-7-7-|
5:5---5-5-5-5-5-5-|7---7-7-7-7-7-7-|----7---7-7-7-7-|5---5-5-5-5-5-5-|
6:----------------|5---5-5-5-5-5-5-|----------------|----------------|


Bridge (1:38)
Gtr.1(dist)
1:----------------|----------------|----------------|----------------|
2:----------------|----------------|----------------|----------------|
3:----------------|7---7-----------|----------------|----------------|
4:4---4-----------|7---7-----------|7-7-7-7-7-7-7-7-|2-2-2-2-2-2-2-2-|
5:4---4-----------|5---5-----------|7-7-7-7-7-7-7-7-|2-2-2-2-2-2-2-2-|
6:2---2-----------|----------------|5-5-5-5-5-5-5-5-|0-0-0-0-0-0-0-0-|
Na, Na, Na...

1:----------------|----------------|----------------|----------------|
2:----------------|----------------|----------------|----------------|
3:----------------|7---7-----------|----------------|----------------|
4:4---4-----------|7---7-----------|7-7-7-7-7-7-7-7-|2-2-2-2-2-2-2-2-|
5:4---4-----------|5---5-----------|7-7-7-7-7-7-7-7-|2-2-2-2-2-2-2-2-|
6:2---2-----------|----------------|5-5-5-5-5-5-5-5-|0-0-0-0-0-0-0-0-|

1:----------------|----------------|----------------|----------------|
2:----------------|----------------|----------------|----------------|
3:----------------|7-7-7-7-7-7-7-7-|----------------|----------------|
4:4-4-4-4-4-4-4-4-|7-7-7-7-7-7-7-7-|7-7-7-7-7-7-7-7-|2-2-2-2-2-2-2-2-|
5:4-4-4-4-4-4-4-4-|5-5-5-5-5-5-5-5-|7-7-7-7-7-7-7-7-|2-2-2-2-2-2-2-2-|
6:2-2-2-2-2-2-2-2-|----------------|5-5-5-5-5-5-5-5-|0-0-0-0-0-0-0-0-|

1:----------------|----------------|----------------|----------------|
2:----------------|----------------|----------------|----------------|
3:----------------|7-7-7-7-7-7-7-7-|----------------|----------------|
4:4-4-4-4-4-4-4-4-|7-7-7-7-7-7-7-7-|7-7-7-7-7-7-7-7-|2-2-2-2-2-2-2-2-|
5:4-4-4-4-4-4-4-4-|5-5-5-5-5-5-5-5-|7-7-7-7-7-7-7-7-|2-2-2-2-2-2-2-2-|
6:2-2-2-2-2-2-2-2-|----------------|5-5-5-5-5-5-5-5-|0-0-0-0-0-0-0-0-|


Chorus (1:57)
Gtr.1(dist)
1:----------------|----------------|----------------|----------------|
2:----------------|----------------|----------------|----------------|
3:7---7-7-7-7-7-7-|----------------|9---9-9-9-9-9-9-|7---7-7-7-7-7-7-|
4:7---7-7-7-7-7-7-|7---7-7-7-7-7-7-|9---9-9-9-9-9-9-|7---7-7-7-7-7-7-|
5:5---5-5-5-5-5-5-|7---7-7-7-7-7-7-|7---7-7-7-7-7-7-|5---5-5-5-5-5-5-|
6:----------------|5---5-5-5-5-5-5-|----------------|----------------|
Please don't remind me...

1:----------------|----------------|----------------|----------------|
2:----------------|----------------|----------------|----------------|
3:7---7-7-7-7-7-7-|----------------|9---9-9-9-9-9-9-|7---7-7-7-7-7-7-|
4:7---7-7-7-7-7-7-|7---7-7-7-7-7-7-|9---9-9-9-9-9-9-|7---7-7-7-7-7-7-|
5:5---5-5-5-5-5-5-|7---7-7-7-7-7-7-|7---7-7-7-7-7-7-|5---5-5-5-5-5-5-|
6:----------------|5---5-5-5-5-5-5-|----------------|----------------|

1:----------------|----------------|----------------|----------------|
2:----------------|----------------|----------------|----------------|
3:7---7-7-7-7-7-7-|----------------|----9---9-9-9-9-|7---7-7-7-7-7-7-|
4:7---7-7-7-7-7-7-|7---7-7-7-7-7-7-|----9---9-9-9-9-|7---7-7-7-7-7-7-|
5:5---5-5-5-5-5-5-|7---7-7-7-7-7-7-|----7---7-7-7-7-|5---5-5-5-5-5-5-|
6:----------------|5---5-5-5-5-5-5-|----------------|----------------|

1:----------------|----------------|----------------|----------------|
2:----------------|----------------|----------------|----------------|
3:7---7-7-7-7-7-7-|----------------|----9---9-9-9-9-|7---7-7-7-7-7-7-|
4:7---7-7-7-7-7-7-|7---7-7-7-7-7-7-|----9---9-9-9-9-|7---7-7-7-7-7-7-|
5:5---5-5-5-5-5-5-|7---7-7-7-7-7-7-|----7---7-7-7-7-|5---5-5-5-5-5-5-|
6:----------------|5---5-5-5-5-5-5-|----------------|----------------|


Outro (2:17)
Gtr.1(dist) End (2:26)
1:----------------|----------------|----------------|----------------|
2:----------------|----------------|----------------|----------------|
3:--------------7-|----------------|----------------|----------------|
4:4---4---4---x-7-|---(let ring)---|----------------|----------------|
5:4---4---4---x-5-|----------------|----------------|----------------|
6:2---2---2-------|----------------|----------------|----------------|

------------------------------------------------------------
First date



INTRO

[g] E-0--------|--------------------------|--------------
[u] B---1--1---|--3--1---1----3---1---1---|--3--1---0----
[i] G-----0--0-|-------0---0--------0---0-|-------0---0--
1rst [t] D----------|--------------------------|--------------
[a] A----------|--------------------------|--------------
[r] E----------|--------------------------|--------------

[g] E--------------------------------------------------
[u] B---------------------------6-6-6-6----8-8-8-8-----
[i] G--5-5-5-5------7-7-7-7-----5-5-5-5----7-7-7-7-----
2nd [t] D--5-5-5-5------7-7-7-7-----3-3-3-3----5-5-5-5-----
[a] A--3-3-3-3------5-5-5-5-------------------------
[r] E--------------------------------------------------
(C) (D) (F) (G)






VERSE

[g] E--------------(all palm mute)---------------------
[u] B--------------------------------------------------
[i] G--5-5-5---5-5-5---5-5-5---5-5-5---5-5-5---5-5-5---
[t] D--5-5-5---5-5-5---5-5-5---5-5-5---5-5-5---5-5-5---
[a] A--3-3-3---3-3-3---3-3-3---3-3-3---3-3-3---3-3-3---
[r] E--------------------------------------------------
(C)

*B* G-----------------------------------------------
*A* D-----------------------------------------------
*S* A-3-3-3-3-3-3-3-3-------------------------------
*S* E------------------3-3-3-3-----1-1-1-1----------

[1] In the car I just cant wait
To pick you up on our very first date
Is it cool if I hold your hand?
Is it wrong if I think its lame to dance?
Do you like my stupid hair?
Would you guess that I didnt know what to wear?
Im just scared of what you think
You make me nervous so I really cant eat

[2] When you smile..I melt inside
Im not worthy for a minute of your time
I really wish it was only me and you
Im jealous of everybody in the room
Please dont look at me with those eyes
Please dont hint that you're capable of lies
I dread the thought of our very first kiss
A target that Im probably gonna miss




CHORUS
E---------------------------------------------------
B---------------------------------------------------
G--5-5---4-4----------------------------------------
D--5-5---5-5---7-7-7-7-7-7-7--3-3-3-3---5-5-5-5------
A--3-3---2-2---7-7-7-7-7-7-7--3-3-3-3---5-5-5-5------
E--------------5-5-5-5-5-5-5--1-1-1-1---3-3-3-3------
(C) (B?) (A) (F) (G)

*CHORUS*
Lets go
Dont wait
This nights almost over

Honest
Lets make
This night last forever

Forever........and ever
Lets make this last forever(x2)




INSTRUMENTAL

[g] E--------(palm mute)-------------------------
[u] B--------------------------------------------
[i] G--5-5-5-5-----------------------------------
1rst[t] D--5-5-5-5---2-2-2-2---3-3-3-3---5-5-5-5-----
[a] A--3-3-3-3---2-2-2-2---3-3-3-3---5-5-5-5-----
[r] E------------0-0-0-0---1-1-1-1---3-3-3-3-----
(C) (E) (F) (G)

[g] E-----------|---------------|----------------|----------|
[u] B-----------|---------------|----------------|----------|
[i] G--5-5-5-5--|-9-9-9-9-5-5-5-|-10-10-10-5-5-5-|--7-7-7-7-|
2nd [t] D--x-x-x-x--|-x-x-x-x-x-x-x-|--x-x-x-x-x-x-x-|--x-x-x-x-|
[a] A--3-3-3-3--|-7-7-7-7-3-3-3-|--8-8-8-8-3-3-3-|--5-5-5-5-|
[r] E-----------|---------------|----------------|----------|


------------------------------------------------------------
Happy holidays, you bastard

Standard tuning


-|---------------------|
-|---------------------|
-|---44444-------------|
-|---44444---444444----|
-|---22222---444444----|
-|-----------222222----|
Its christmas eve....

-|---------------------|
-|---------------------|
-|---------------------|
-|---6-6-6-6----2-2-2--|
-|---6-6-6-6----2-2-2--|
-|---4-4-4-4----0-0-0--|
Hate Hate......

-|------------------|
-|------------------|
-|-4444-------------|
-|-4444--4444---2---|
-|-2222--4444---2---|
-|-------2222---0---|
Ill never talk.....

-|-------------------------|
-|-------------------------|
-|--4444-------------------|
-|--4444--44444--22222222--|
-|--2222--44444--22222222--|
-|--------22222--00000000--|
Unless.......

Repeat above for second verse

-|-----|
-|-----|
-|-----|
-|--4--|
-|--4--|
-|--2--|
End on this

------------------------------------------------------------
story of a lonely guy


Tuning - E A D G B E

Intro - Clean. 2X
||----------------------------------------------|-------------------------------------------------||
||-------10-10-10-12-12-12-12-12-12-12-12-12-12-|-------10-10-10-12-12-12-10-10-10-10-10-10-10-10-||
||-9-9-9----------------------------------------|-9-9-9-------------------------------------------||
||----------------------------------------------|-------------------------------------------------||
||----------------------------------------------|-------------------------------------------------||
||----------------------------------------------|-------------------------------------------------||

Verse - Dist. (Do all the chords 8 times each all palm mute)
4X
||-------------||
||-------------||
||-------------||
||-7--9--10-12-||
||-7--9--10-12-||
||-5--7--9--10-||
PM...........|

Pre Chorus (Im not 100% sure about this , but this is close !)
Dist. 2X
||-----------------------------------------------------------------||
||-----------------------------------------------------------------||
||-----------------------------------------------------------------||
||-----7-------7--------7-------7--------7-------7-------7-------7-||
||-4-4---4-4-4---4--5-5---5-5-5---5--7-7---7-7-7---7-7-7---7-7-7---||
||-----------------------------------------------------------------||
||
||This is another guitar , Dist. Pick scractch
||-----------------------------------------------------------------||
||-----------------------------------------------------------------||
||-----------------------------------------------------------------||
||---------------------------------------------------------x\\\----||
||---------------------------------------------------------x\\\----||
||-----------------------------------------------------------------||

Chorus Dist . (Do all the chords 8X each , NO palm mute)
||------------||
||------------||
||----4-----7-||
||-7--4--4--7-||
||-7--2--4--5-||
||-5-----2----||

Repeat the Verse and Chorus .
And play the Bridge after .

Bridge Clean. | Dist. 2X
||------------------------------------------------------||
||------------------------------------------------------||
||------------------------------------9999999999999999--||
||-----7-------7--------7-------7-----9999999999999999--||
||-4-4---4-4-4---4--5-5---5-5-5---5---7777777777777777--||
||------------------------------------------------------||
_____________________________
Clean. |1. 2X
||-----------------------------------------------------------------||
||-----------------------------------------------------------------||
||-----------------------------------------------------------------||
||-----7-------7--------7-------7--------7-------7-------7-------7-||
||-4-4---4-4-4---4--5-5---5-5-5---5--7-7---7-7-7---7-7-7---7-7-7---||
||-----------------------------------------------------------------||

Chorus Dist . (Do all the chords 8X each , NO palm mute)
___________
|2. 5X
||------------||
||------------||
||----4-----7-||
||-7--4--4--7-||
||-7--2--4--5-||
||-5-----2----||

Ending Let Ring ...
||-----------------------------------------------||
||-----------------------------------------------||
||----------44444444----------7777777777777777---||
||-77777777-44444444-44444444-7777777777777777-7-||
||-77777777-22222222-44444444-5555555555555555-7-||
||-55555555----------22222222------------------5-||


------------------------------------------------------------
The Rock Show



t= timing

T| o-------o-------o-------o-------o-------o-------o-------o------- |
A5 D5 E5
e| ---------------------------------------------------------------- |
B| ---------------------------------------------------------------- |
G| ---------------------------------------------------------------- |
D| ---------------------------------------------------------------- |
A| --------7-------5-------4---------------7-------5-------4-7-4--- |
E| 5-5-5-5-----5-5-----5-5---5--5--5-5-5-5-----5-5-----5-5-------5- |

Pre-Verse x1 - guitar palm muted
(0:10-0:12)

T| o-------o-------o-------o------- |
A5
e| -------------------------------- |
B| -------------------------------- |
G| -------------------------------- |
D| 7-7-7-7-7-7-7-7-7-7-7-7-7-7-7-7- |
A| 7-7-7-7-7-7-7-7-7-7-7-7-7-7-7-7- |
E| 5-5-5-5-5-5-5-5-5-5-5-5-5-5-5-5- |

Verse 1 x2 - strum on first beat of each chord change, rest is palm muted
(0:12-0:22)

T| o-------o-------o-------o-------o-------o-------o-------o------- |
A5 D5 E5
e| ---------------------------------------------------------------- |
B| ---------------------------------------------------------------- |
G| --------------------------------7---7-7-7-7-7-7-9---9-9-9-9-9-9- |
D| 7---7-7-7-7-7-7-7-7-7-7-7-7-7-7-7---7-7-7-7-7-7-9---9-9-9-9-9-9- |
A| 7---7-7-7-7-7-7-7-7-7-7-7-7-7-7-5---5-5-5-5-5-5-7---7-7-7-7-7-7- |
E| 5---5-5-5-5-5-5-5-5-5-5-5-5-5-5--------------------------------- |

Main Riff x2
(0:22-0:32)

Verse 2 - play 1st A5 and let ring thru to chorus
(0:32-0:42)

Chorus Part 1 x3
(0:42-0:49)

T| o-------o-------o-------o------- |
A5 F#5 D5
e| -------------------------------- |
B| -------------------------------- |
G| ------------------------7------- |
D| 7---7---7-------4-------7------- |
A| 7---7---7-------4-------5------- |
E| 5---5---5-------2--------------- |

Chorus Part 2 x1 - normal on first B5, palm mute rest
(0:49-0:54)

T| o-------o-------o-------o-------o-------o-------o-------o------- |
B5 D5 B5 D5
e| ---------------------------------------------------------------- |
B| ---------------------------------------------------------------- |
G| ----------------7-7-7-7-7-7-7-7-----------------7-7-7-7-7-7-7-7- |
D| 9---9-9-9-9-9-9-7-7-7-7-7-7-7-7-9-9-9-9-9-9-9-9-7-7-7-7-7-7-7-7- |
A| 9---9-9-9-9-9-9-5-5-5-5-5-5-5-5-9-9-9-9-9-9-9-9-5-5-5-5-5-5-5-5- |
E| 7---7-7-7-7-7-7-----------------7-7-7-7-7-7-7-7----------------- |

Chorus Part 3 x1 - palm mute B5, normal for D5 and C#5
(0:54-0:57)

T| o-------o-------o-------o------- |
B5 D5 C#5
e| -------------------------------- |
B| -------------------------------- |
G| ----------------7-------6------- |
D| 9-9-9-9-9-9-9-9-7-------6------- |
A| 9-9-9-9-9-9-9-9-5-------4------- |
E| 7-7-7-7-7-7-7-7----------------- |

Main Riff x2
(0:57-1:07)

Verse 1 x2
(1:07-1:17)

Chorus Part 1 x3
(1:17-1:24)

Chorus Part 2 x1
(1:24-1:29)

Chorus Part 3 x1
(1:29-1:32)

Bridge x2 - possibly with chords in background on 2nd repeat, hard to tell
(1:32-1:52)

T| o-------o-------o-------o-------o-------o-------o-------o------- |
F#5 A5
e| ---------------------------------------------------------------- |
B| 2---------------2-------3-------2---------------2-------3------- |
G| ----2---------------2-------2-------2---------------2-------2--- |
D| --------4-------------------------------4----------------------- |
A| ---------------------------------------------------------------- |
E| ---------------------------------------------------------------- |

T| o-------o-------o-------o-------o-------o-------o-------o------- |
D5 E5
e| ---------------------------------------------------------------- |
B| 2---------------2-------3-------2---------------2-------3------- |
G| ----2---------------2-------2-------2---------------2-------2--- |
D| --------4-------------------------------4----------------------- |
A| ---------------------------------------------------------------- |
E| ---------------------------------------------------------------- |

Chorus Part 1 x3
(1:52-1:59)

Chorus Part 2 x1
(1:59-2:04)

Chorus Part 3 x1
(2:04-2:07)

Main Riff x? - Repeat until fadeout, or x8 if playing live
(2:07-2:48)

------------------------------------------------------------
Stay Together for the kids



Intro/Main Riff (Clean)

e|-----------------|-----------------|-----------------|----------------|
B|-----------------|-----------------|-----------------|----------------|
G|-----------------|-----------------|-----------------|----------------|
D|---0---7---0-4-0-|---0---7---0-4-0-|---0---4---4-5-4-|---2--4-5-4-2-0-|
A|-5---5---5-------|-4---4---4-------|-2---2---2-------|-0--------------|
E|-----------------|-----------------|-----------------|----------------|

Verse (Clean)

e|-------------|-------------|-------------|------------------------------|
B|-------------|-------------|-------------|------------------------------|
G|------7------|------7------|------7------|------9------9------6------7--|
D|------7--4x--|------7--4x--|------7--4x--|------7------7------7------7--|
A|--5-5--------|-------------|--0-0--------|--0-0----0-0----0-0----0-0----|
E|-------------|--7-7--------|-------------|------------------------------|


Chorus (Distortion)

e|------------------|------------------|
B|------------------|------------------|
G|------------------|------------------|
D|------------------|------------------|
A|-5555555555555555-|-5555555555555555-|
E|-3333333333333333-|-2222222222222202-|

Song Order

Intro - 2x
Verse - 2x
Chorus - 4x
Main Riff - 2x
Verse - 2x
Chorus - 4x
(Instrumental)
Repeat Chorus and Fade Out

------------------------------------------------------------
Roller coaster


Tuning: EADGBE


Riff A
E---------------------------------------------------------
B---------------------------------------------------------
G-6---6-7-6-----------------------------------------------
D---7----------7------------------------------------------
A-----------------0-0-0-----------------------------------
E---------------------------------------------------------

Riff B: Pt.1 Pt. 2 Pt. 3
E---------------------------------------------------------
B---------------------------------------------------------
G---------------------------------------------------------
D--------------7------------7---------7-------------------
A--------0-0---------5-5----------------------------------
E--------------------------------7-7----------------------

Riff C
E---------------------------------------------------------
B---------------------------------------------------------
G---------------------------------------------------------
D---------------------------------------------------------
A-4-0-4-5-4-0-0-0-0--4-0-4-5-4-0-0-0-0--4-0-4-5-4-0-0-0-2-
E---------------------------------------------------------

Riff C (Cont'd)
E---------------------------------------------------------
B---------------------------------------------------------
G---------------------------------------------------------
D---------------------------------------------------------
A-4-0-4-5-4-0-0-0-0---------------------------------------
E---------------------------------------------------------

Riff D
E---------------------------------------------------------
B---------------------------------------------------------
G------------7-7-7-7-7-------------7-7-7-7-7--------------
D-7-7-7-7-7--7-7-7-7-7--9-9-9-9-9--7-7-7-7-7--------------
A-7-7-7-7-7--5-5-5-5-5--9-9-9-9-9--5-5-5-5-5--------------
E-5-5-5-5-5-------------7-7-7-7-7-------------------------

Riff E
E---------------------------------------------------------
B---------------------------------------------------------
G------7-7-7--------7-7-7---------------------------------
D-7-7-7-7-7-7-9-9-9-7-7-7---------------------------------
A-7-7-7-5-5-5-9-9-9-5-5-5---------------------------------
E-5-5-5-------7-7-7---------------------------------------

Interlude (let Ring)
E---------------------------------------------------------
B---------------------------------------------------------
G---------------------------------------------------------
D-7-------------------------------------------------------
A-7-------------------------------------------------------
E-5-------------------------------------------------------

Riff F
E---------------------------------------------------------
B---------------------------------------------------------
G----------------------7777777777-------77777-------------
D-77777777777777777777-7777777777-99999-77777-------------
A-77777777777777777777-5555555555-99999-55555-------------
E-55555555555555555555------------77777-------------------

Last Chord
E---------------------------------------------------------
B---------------------------------------------------------
G---------------------------------------------------------
D-7-------------------------------------------------------
A-7-------------------------------------------------------
E-5-------------------------------------------------------

------------------------------------------------------------
Reckless abandon


**INTRO**
E---------------------------------------------------
B---------------------------------------------------
G-4-4-4-4-------------------------------------------
D-----------2-2-2-2---6-6-6-6---4-4-4-4---2-2-2-2---
A-2-2-2-2---2-2-2-2---6-6-6-6---4-4-4-4---2-2-2-2---
E-----------0-0-0-0---4-4-4-4---2-2-2-2---0-0-0-0---
(B) (E) (G#) (F#) (E)

On and on..........Reckless abandon
Somethings wrong...This is gonna shock them
Nothing to.........Hold On to
We use this song...To lead you on........


**CLASS RIFF**
E--------------|---------------|----------------|--------------------
B--------------|---------------|----------------|--------------------
G--------------|---------------|----------------|--------------------
D--1----4---2--|--1-----4---2--|-1------4---2---|--1-----1--2--------(x2)
A----2---------|-----2---------|----2-----------|-----2---------4----
E--------------|---------------|----------------|--------------------


****VERSE****
E------------------------------------------------
B------------------------------------------------
G---4-4-4-4-4-4-4-4------------------------------
D---4-4-4-4-4-4-4-4----4-4-4-4-4-4-4-4-----------(x2)
A---2-2-2-2-2-2-2-2----4-4-4-4-4-4-4-4-----------
E----------------------2-2-2-2-2-2-2-2-----------
(B) (F#)

[1] I learned a lot today
Not sure If Ill get laid
Not sure If Ill fail or pass
Kissed every girl in class

Everybody would waste it all
To have a summer that they could call
A memory thats full of fun
***ed up but its all done


[2] Sip a drink of the alcohol
End up kneeling in bathroom stalls
Eyes are red and my movements slow
Too high Got vertigo

He took a *** in the bathroom tub
And fed the dog the brownie drugs
Tried hard to not get caught
He ***ed a chick in the parking lot


[3] Break a window and bust a wall
Making fun of your friends mom
Turn the music up way too loud
Charge a pizza to the house

Everybody would waste it all
To have a summer that they could call
A memorie thats full of fun
***ed up but its all done


***CHORUS***
E--------------------------------------------------|------------------------
B--------------------------------------------------|------------------------
G-4-4-4-4------------------------------------------|------------------------
D-4-4-4-4---2-2-2-2---6-6-6-6---4-4-4-4---2-2-2-2--|-6-6-6-6---4-4-4-4---2--
A-2-2-2-2---2-2-2-2---6-6-6-6---4-4-4-4---2-2-2-2--|-6-6-6-6---4-4-4-4---2--
E-----------0-0-0-0---4-4-4-4---2-2-2-2---0-0-0-0--|-4-4-4-4---2-2-2-2---0--
(B) (E) (G#) (F#) (E) (G#) (F#) (E)

On and on.............Reckless abandon
Somethings wrong......This is gonna shock them
Nothing to............Hold On to
We use this song......To lead you on........
And break the truth...With more bad news
We left a scar size extra large




***BRIDGE***
E--------------------------------------------------
B--------------------------------------------------
G---4----------------------------------------------
D---4----2------6-----4----------------------------(x4)
A---2----2------6-----4----------------------------
E--------0------4-----2----------------------------


------------------------------------------------------------
everytime i look for you


Guitars A&B

e ------------------------
B ------------------------
G --4-4-4--4-4-4--4--4-4--
D --x-x-x--x-x-x--x--x-x--
A --2-2-2--2-2-2--2--2-2--
E ------------------------

*********************************
PRE-CHORUS RIFF 1 (play 2x clean)
*********************************

"Young and stupid..."

Guitars A&B (C is quiet)

e ----------------------------------
B ----------------------------------
G --4-------------6-------9---------
D --x-------------x-------x---------
A --2.............4.......7.........
E ----------------------------------

********************************
MAIN RIFF (play 2x w/distortion)
********************************

Guitars A&B

e ------------------------------------------------------
B ------------------------------------------------------
G --4-4-4-4-4-4----------------------------6-6-6-6-6-6--
D --4-4-4-4-4-4--4-4-4-4-4-4--2-2-2-2-2-2--6-6-6-6-6-6--
A --2-2-2-2-2-2--4-4-4-4-4-4--2-2-2-2-2-2--4-4-4-4-4-4--
E ---------------2-2-2-2-2-2--0-0-0-0-0-0---------------

Guitar C

e ------------------------------------------------------
B ------------------------------------------------------
G --8---9-8----------9-8----------9-8--------------8----
D ----9------------9------------9------------9--12------
A ------------------------------------------------------
E ------------------------------------------------------

********************
VERSE RIFF (play 1x)
********************

"One more point of contention..."/"More time apart will give you..."

Guitars A&B

e -------------------------------
B -------------------------------
G --4----------------------------
D --x----------------------------
A --2..........................fo
E -------------------------------

Guitar C

e -------------------------------
B -------------------------------
G -------------------------------
D --9..........................fo
A -------------------------------
E -------------------------------

*********************************
PRE-CHORUS RIFF 2 (play 2x clean)
*********************************

"Span the distance..."/"Drive the point home..."

Guitar A&B

e ----------------------------------
B ----------------------------------
G --4-------------6-------9---------
D --x-------------x-------x---------
A --2.............4.......7.........
E ----------------------------------

Guitar C

e ----------------------------------
B ----------------------------------
G -------8-------8-------8-------8--
D --9-12----9-12----9-12----9-12----
A ----------------------------------
E ----------------------------------

***********************
CHORUS RIFF 1 (play 4x)
***********************

"Everytime I look for you..."

Guitar A&B (C is quiet)

e ----------------------------------------------
B ----------------------------------------------
G --4-4-4-4-4--4-4-4-4-4--4-4-4-4-4--4-4-4-4-4--
D --x-x-x-x-x--x-x-x-x-x--x-x-x-x-x--x-x-x-x-x--
A --2-2-2-2-2--2-2-2-2-2--2-2-2-2-2--2-2-2-2-2--
E ----------------------------------------------

***********************
CHORUS RIFF 2 (play 1x)
***********************

"...more..."

Guitar A&B

e -------------------------------------------------------------------
B -------------------------------------------------------------------
G -------------------------------------------------------------------
D --2-2-2-2-2-2-2-2-2-2-2-2-2-2-2-2-2-2-2-2-2-2-2-2-2-2-2-2-2-2-2-2--
A --2-2-2-2-2-2-2-2-2-2-2-2-2-2-2-2-2-2-2-2-2-2-2-2-2-2-2-2-2-2-2-2--
E --0-0-0-0-0-0-0-0-0-0-0-0-0-0-0-0-0-0-0-0-0-0-0-0-0-0-0-0-0-0-0-0--

Guitar C

e -------------------------------------------------------------------
B -------------------------------------------------------------------
G --9-9-9-9-9-9-9-9-9-9-9-9-9-9-9-9-9-9-9-9-9-9-9-9-9-9-9-9-9-9-9-9--
D --x-x-x-x-x-x-x-x-x-x-x-x-x-x-x-x-x-x-x-x-x-x-x-x-x-x-x-x-x-x-x-x--
A --7-7-7-7-7-7-7-7-7-7-7-7-7-7-7-7-7-7-7-7-7-7-7-7-7-7-7-7-7-7-7-7--
E -------------------------------------------------------------------

***********************************************************************
Then play A&B&C Main Riff 2x, A&B&C Verse Riff 1x, A&B&C Pre-Chorus
Riff 2 2x, A&B Chorus Riff 1 4x, and A&B&C Chorus Riff 2 1x...
***********************************************************************

**********************************************************************
INTERLUDE RIFF 1 (play 1x fast w/slight distortion, use neck pick-up!)
**********************************************************************

Guitar C (A&B is quiet)

e ---------------------------------------------------------------------
B ---------------------------------------------------------------------
G --4-4-4-4-4-4-4-4-4-4-4-4-4-4-4-4-8-8-8-8-8-8-8-8-8-8-8-11-11-11-11--
D --x-x-x-x-x-x-x-x-x-x-x-x-x-x-x-x-x-x-x-x-x-x-x-x-x-x-x--x--x--x--x--
A --2-2-2-2-2-2-2-2-2-2-2-2-2-2-2-2-6-6-6-6-6-6-6-6-6-6-6--9--9--9--9--
E ---------------------------------------------------------------------

e -------------------------------------------------------------------
B -------------------------------------------------------------------
G --9-9-9-9-9-9-9-9-9-9-9-9-9-9-9-9-9-9-9-9-9-9-9-9-9-9-9-9-9-9-9-9--
D --x-x-x-x-x-x-x-x-x-x-x-x-x-x-x-x-x-x-x-x-x-x-x-x-x-x-x-x-x-x-x-x--
A --7-7-7-7-7-7-7-7-7-7-7-7-7-7-7-7-7-7-7-7-7-7-7-7-7-7-7-7-7-7-7-7--
E -------------------------------------------------------------------

e ---------------------------------------------------------------------
B ---------------------------------------------------------------------
G --4-4-4-4-4-4-4-4-4-4-4-4-4-4-4-4-8-8-8-8-8-8-8-8-8-8-8-11-11-11-11--
D --x-x-x-x-x-x-x-x-x-x-x-x-x-x-x-x-x-x-x-x-x-x-x-x-x-x-x--x--x--x--x--
A --2-2-2-2-2-2-2-2-2-2-2-2-2-2-2-2-6-6-6-6-6-6-6-6-6-6-6--9--9--9--9--
E ---------------------------------------------------------------------

e -------------------------------------------------------------------
B -------------------------------------------------------------------
G --9-9-9-9-9-9-9-9-9-9-9-9-9-9-9-9-9-9-9-9-9-9-9-9------------------
D --x-x-x-x-x-x-x-x-x-x-x-x-x-x-x-x-x-x-x-x-x-x-x-x------------------
A --7-7-7-7-7-7-7-7-7-7-7-7-7-7-7-7-7-7-7-7-7-7-7-7%%%%%%%%%%%%%%%%%%
E -------------------------------------------------------------------

***************************************************************
INTERLUDE RIFF 2 (play 2x fast w/distortion, use neck pick-up!)
***************************************************************

Guitars A&B&C

e ---------------------------------------------------------------------
B ---------------------------------------------------------------------
G --4-4-4-4-4-4-4-4-4-4-4-4-4-4-4-4-8-8-8-8-8-8-8-8-8-8-8-11-11-11-11--
D --x-x-x-x-x-x-x-x-x-x-x-x-x-x-x-x-x-x-x-x-x-x-x-x-x-x-x--x--x--x--x--
A --2-2-2-2-2-2-2-2-2-2-2-2-2-2-2-2-6-6-6-6-6-6-6-6-6-6-6--9--9--9--9--
E ---------------------------------------------------------------------

e -------------------------------------------------------------------
B -------------------------------------------------------------------
G --9-9-9-9-9-9-9-9-9-9-9-9-9-9-9-9-9-9-9-9-9-9-9-9-9-9-9-9-9-9-9-9--
D --x-x-x-x-x-x-x-x-x-x-x-x-x-x-x-x-x-x-x-x-x-x-x-x-x-x-x-x-x-x-x-x--
A --7-7-7-7-7-7-7-7-7-7-7-7-7-7-7-7-7-7-7-7-7-7-7-7-7-7-7-7-7-7-7-7--
E -------------------------------------------------------------------

***************************************************************
INTERLUDE RIFF 3 (play 2x fast w/distortion, use neck-pick up!)
***************************************************************

"I never did quite understand what she meant..."

Guitars A&B&C

e ---------------------------------------------------------------------
B ---------------------------------------------------------------------
G --4-4-4-4-4-4-4-4-4-4-4-4-4-4-4-4-8-8-8-8-8-8-8-8-8-8-8-8-8-8-8-8-8--
D --x-x-x-x-x-x-x-x-x-x-x-x-x-x-x-x-x-x-x-x-x-x-x-x-x-x-x-x-x-x-x-x-x--
A --2-2-2-2-2-2-2-2-2-2-2-2-2-2-2-2-6-6-6-6-6-6-6-6-6-6-6-6-6-6-6-6-6--
E ---------------------------------------------------------------------

e -------------------------------------------------------------------
B -------------------------------------------------------------------
G --9-9-9-9-9-9-9-9-9-9-9-9-9-9-9-9-9-9-9-9-9-9-9-9-9-9-9-9-9-9-9-9--
D --x-x-x-x-x-x-x-x-x-x-x-x-x-x-x-x-x-x-x-x-x-x-x-x-x-x-x-x-x-x-x-x--
A --7-7-7-7-7-7-7-7-7-7-7-7-7-7-7-7-7-7-7-7-7-7-7-7-7-7-7-7-7-7-7-7--
E -------------------------------------------------------------------

*********************************
Then play A&B Chorus Riff 1 4x...
*********************************

***********************
CHORUS RIFF 3 (play 2x)
***********************

"And I stumble when this whole thing runs aground..."

Guitars A&B

e --------------------------------------------------
B --------------------------------------------------
G --4-4-4--4-4--4-4-4--4-4--4-4-4--4-4--4-4-4--4-4--
D --x-x-x--x-x--x-x-x--x-x--x-x-x--x-x--x-x-x--x-x--
A --2-2-2--2-2--2-2-2--2-2--2-2-2--2-2--2-2-2--2-2--
E --------------------------------------------------

Guitar C

e --------------------------------------------------
B ---------------------------------------------1-3--
G --4-4-4--4-4--4-4-4--4-4--4-4-4--4-4--4-4--4------
D --x-x-x--x-x--x-x-x--x-x--x-x-x--x-x--x-x---------
A --2-2-2--2-2--2-2-2--2-2--2-2-2--2-2--2-2---------
E --------------------------------------------------

********************
OUTRO RIFF (play 1x)
********************

"'Cause everytime I look for you the sun goes down..."

Guitars A&B

e -------------------------------------------------------
B -------------------------------------------------------
G --4-4-4--4-4--4-4-4--4-4-------------------------------
D --x-x-x--x-x--x-x-x--x-x--2---2---2--------------------
A --2-2-2--2-2--2-2-2--2-2--2---2---2--------------------
E --------------------------0---0---0..................fo

Guitar C

e -------------------------------------------------------
B -------------------------------------------------------
G --4-4-4--4-4--4-4-4--4-4--9---9---9--------------------
D --x-x-x--x-x--x-x-x--x-x--x---x---x..................fo
A --2-2-2--2-2--2-2-2--2-2--7---7---7--------------------
E -------------------------------------------------------


------------------------------------------------------------
give me one good reason
e-----------------------------------------------------------------------------------------------------------------------------------------------
G------------------------------------------------------------------------------------------------------------------------------------------7777-
B------1--------1--------1-----------1------------1--------1------1-------1---------1--------1--------1--------1---------1--------1-------------
D---2----2--------2---------2-----------2------2----2-------2------2-------2---------2---------2--------2-------2----2---2----------------------
A-2---------2--------0-----------0-----------2---------2-------0-------0---------4-------4---------0--------0------4-----------4-----0----------
E-----------------------------------------------------------------------------------------------------------------------------------------------

MY DADDY COULD...........

e------------------------------------------------------------------------------------------------------------------------
G------------------------------------------------------------------------------------------------------------------------
B--------------------------------------------------------------------------------------------------------1-----------1---
D-----------44444-----------44444----66666-----------------66666---------------------------------------1h2------1h2------
A--22222-22222--22222-22222----44444------77777---44444----77777-----22222--------222--------22222-----------------------
E--00000-----------00000---------------------------55555---------------55555-----00000--------000--------00000-----------

SO GIVE ME ONE GOOD REASOOOOOONNNNN...........

e-----------------------------------------------------------------------------------------
G-----------------------------------------------------------------------------------------
B-----------------------------------------------------------------------------------------
D-----------------22222222----44444444-----------------22222222----44444444----2222222----
A-22222222---00000000----22222222--22222222--00000000-----22222222---00000000-------------
E-00000000----------------------------------00000000--------------------------------------

THEN REPEAT THE INTRO:


e-----------------------------------------------------------------------------------------------------------------------------------------------
G------------------------------------------------------------------------------------------------------------------------------------------7777-
B------1--------1--------1-----------1------------1--------1------1-------1---------1--------1--------1--------1---------1--------1-------------
D---2----2--------2---------2-----------2------2----2-------2------2-------2---------2---------2--------2-------2----2---2----------------------
A-2---------2--------0-----------0-----------2---------2-------0-------0---------4-------4---------0--------0------4-----------4-----0----------
E-----------------------------------------------------------------------------------------------------------------------------------------------

THEN:

e---------------------------------------------------------------------------------------------------------------------
G---------------------------------------------------------------------------------------------------------------------
B------------------------------------------------------------------------------------------------------1------------1-
D-----------44444-----------44444----66666-----------------66666-------------------------------------1h2------1h2-----
A--22222-22222--22222-22222----44444------77777---44444----77777-----22222--------222--------22222--------------------
E--00000-----------00000---------------------------55555---------------55555-----00000--------000------00000----------


THEN:

e----------------------------------------------------------------------------------------
G----------------------------------------------------------------------------------------
B----------------------------------------------------------------------------------------
D-----------------22222222----44444444-----------------22222222----44444444----2222222---
A-22222222---00000000----22222222--22222222--00000000-----22222222---00000000------------
E-00000000----------------------------------00000000-------------------------------------



NOW COME THE SOLO:

e--------------------------------------------------------------------------------------------------------------------------------------
G---------------1-1-1-2-2-2-1-1------------------------------------------------------1-1-1--2-2-2-1-1----------------------------------
B-222---444-----------------------22--222---------2222----------222----444--------------------------22---44444---6------4444--6--------
D------------------------------------------------222------------22----------------------------------------------------------------7--7-
A--------------------------------------------------------------------------------------------------------------------------------------
E--------------------------------------------------------------------------------------------------------------------------------------


THAT REPEAT 2 TIMES
THEN:
SO GIVE ME ONE GOOD..........


e-----------------------------------------------------------------------------------------
G-----------------------------------------------------------------------------------------
B-----------------------------------------------------------------------------------------
D-----------------22222222----44444444-----------------22222222----44444444----2222222----
A-22222222---00000000----22222222--22222222--00000000-----22222222---00000000-------------
E-00000000----------------------------------00000000--------------------------------------


END IN:


e----------
G----------
B----------
D----2-----
A----2-----
E----0-----

------------------------------------------------------------
Shut up


First part of intro
E------------|--------------
B------------|--------------
G------------|--------------
D----7-7-7-7-|-7-7-7-7------
A------------|--------------
E------------|--------------

Intro 2 & Verses
E----------------------------------------------
B----------------------------------------------
G------9-------9------9---------9--------------
D--7-7---7-7-7---------------------------------
A----------------------------------------------
E----------------9-9------10-10----------------

or

Intro 1
E----------------------------------------------
B----------------------------------------------
G--2-2-2-2-2-2-2-2-----------------------------
D----------------------------------------------
A----------------------------------------------
E----------------------------------------------

Intro 2 & Verses
E------0---|-----0---|------0---|-------0-------
B----------|---------|----------|---------------
G----2---2-|---2---2-|----2---2-|-----2---2-----
D----------|---------|----------|---------------
A--0-------|-0-------|-4--------|--5------------
E----------|---------|----------|---------------


Guitar 2 - Intro & Verses
(A) (C#) (D)
E--------------------------------------------
A--------------------------------------------
G--------------6-6---7-7-7-------------------
D---7-7-7-7----6-6---7-7-7-------------------
A---7-7-7-7----4-4---5-5-5-------------------
E---5-5-5-5----------------------------------

Chorus
E---------------------------------|--------------------
B---------------------------------|--------------------
G--7-7-7-7-------------14--14--14-|--4-4-4-4---7-7-7-7-
D--7-7-7-7---7-7-7-7--------------|--4-4-4-4---7-7-7-7- (x2 Each)
A--5-5-5-5---7-7-7-7---12--12--12-|--2-2-2-2---5-5-5-5-
E------------5-5-5-5--------------|--------------------
(D) (A) (A octave) (B) (D)

Bridge 1
E--------------------------------------------------
B--------------------------------------------------
G---9-9-9-9----11-11-11-11----7-7-7-7--------------
D---9-9-9-9----11-11-11-11----7-7-7-7--------------
A---7-7-7-7-----9--9--9--9----5-5-5-5--------------
E--------------------------------------------------
(E) (F#) (A)

Bridge 2
E----------------------------------------------
B----------------------------------------------
G-14------13------11----/18-----16------14-----
D---(x8)----(x4)----(x4)---(x8)----(x4)---(x4)-
A-12------11------9-----/16-----14------12-----
E----------------------------------------------

E----------------------------------------------
B----------------------------------------------
G-14------13------11----/18-----16------19-----
D---(x8)----(x4)----(x4)---(x8)----(x4)---(x4)-
A-12------11------9-----/16-----14------17-----
E----------------------------------------------


------------------------------------------------------------
please take me home



Intro : "Oh no it happened again"
e|----------------------------------------------------|
B|----------------------------------------------------| 6x
G|--8-8-8-8-8-8-8-8-8-8-8-8-8-8-8-8--4-4-4-4-4-4-4-4--|
D|--X-X-X-X-X-X-X-X-X-X-X-X-X-X-X-X--X-X-X-X-X-X-X-X--|
A|--6-6-6-6-6-6-6-6-6-6-6-6-6-6-6-6--2-2-2-2-2-2-2-2--|
E|----------------------------------------------------|

Pre Chorus: "She's Unstoppable..."
e|----------------------------------------------|
B|----------------------------------------------|
G|--4-4-4-4-4-----------------------------------|
D|--4-4-4-4-4--4-4-4-4-4--6-6-6-6-6--4-4-4-4-4--|
A|--2-2-2-2-2--4-4-4-4-4--6-6-6-6-6--4-4-4-4-4--|
E|-------------2-2-2-2-2--4-4-4-4-4--2-2-2-2-2--|

"Wrong"
e|-------------------------------------------------------|
B|-------------------------------------------------------|
G|-----------------------------------3-3-3-3-3-3-3-3-----|
D|--2-2-2-2-2-2-2-2-2-2-2-2-2-2-2-2--3-3-3-3-3-3-3-3--4--|
A|--2-2-2-2-2-2-2-2-2-2-2-2-2-2-2-2--1-1-1-1-1-1-1-1--4--|
E|--0-0-0-0-0-0-0-0-0-0-0-0-0-0-0-0-------------------2--|

Chorus: "Please Take, Me Home..."
E|--------------------------------------|
B|--------------------------------------| 2x
G|--4-4-4-4--3-3-3-3--------------------|
D|--4-4-4-4--3-3-3-3--6-6-6-6--2-2-2-2--|
A|--2-2-2-2--1-1-1-1--6-6-6-6--2-2-2-2--|
E|--------------------4-4-4-4--0-0-0-0--|

Verse: "I hope, hope that it lasts"
e|----------------------------------------------------|
B|----------------------------------------------------| 4x
G|--8-8-8-8-8-8-8-8-8-8-8-8-8-8-8-8--4-4-4-4-4-4-4-4--|
D|--X-X-X-X-X-X-X-X-X-X-X-X-X-X-X-X--X-X-X-X-X-X-X-X--|
A|--6-6-6-6-6-6-6-6-6-6-6-6-6-6-6-6--2-2-2-2-2-2-2-2--|
E|----------------------------------------------------|

Pre Chorus: "She's Unstoppable..."
e|----------------------------------------------|
B|----------------------------------------------|
G|--4-4-4-4-4-----------------------------------|
D|--4-4-4-4-4--4-4-4-4-4--6-6-6-6-6--4-4-4-4-4--|
A|--2-2-2-2-2--4-4-4-4-4--6-6-6-6-6--4-4-4-4-4--|
E|-------------2-2-2-2-2--4-4-4-4-4--2-2-2-2-2--|

"Wrong"
e|-------------------------------------------------------|
B|-------------------------------------------------------|
G|-----------------------------------3-3-3-3-3-3-3-3-----|
D|--2-2-2-2-2-2-2-2-2-2-2-2-2-2-2-2--3-3-3-3-3-3-3-3--4--|
A|--2-2-2-2-2-2-2-2-2-2-2-2-2-2-2-2--1-1-1-1-1-1-1-1--4--|
E|--0-0-0-0-0-0-0-0-0-0-0-0-0-0-0-0-------------------2--|

Chorus: "Please Take, Me Home..."
e|--------------------------------------|
B|--------------------------------------| 4x
G|--4-4-4-4--3-3-3-3--------------------|
D|--4-4-4-4--3-3-3-3--6-6-6-6--2-2-2-2--|
A|--2-2-2-2--1-1-1-1--6-6-6-6--2-2-2-2--|
E|--------------------4-4-4-4--0-0-0-0--|

Interlude: "why did we have to go date"
e|----------------------|
B|----------------------| 4x
G|----------------------|
D|--4-4--6-6--8-8--9-9--|
A|--2-2--4-4--6-6--7-7--|
E|----------------------|

(play first 3 notes 8 times)
e|--------------------------------|
B|--------------------------------| 2x
G|-------------------------9---9--|
D|--4-X8-6-x8--8-x8--9-9-9---9-9--|
A|--2----4-----6-----7-7-7--------|
E|--------------------------------|
PM ----------------------

"Let go!"
e|--------------------------------------|
B|--------------------------------------| 2x
G|--4-4-4-4--3-3-3-3--8-8-8-8--6-6-4-6--|
D|--x-x-x-x--x-x-x-x--x-x-x-x--x-x-x-x--|
A|--2-2-2-2--1-1-1-1--6-6-6-6--4-4-2-4--|
E|--------------------------------------|

(listen for the timing on this part.)
e|--------------------------------------------------|
B|--------------------------------------------------| 2x
G|--8-8-8-8-8-8--8-8-8-8-8---8-8-8-8-8--4--4-4-4-4--|
D|--X-X-X-X-X-X--X-X-X-X-X---X-X-X-X-X--X--X-X-X-X--|
A|--6-6-6-6-6-6--6-6-6-6-6---6-6-6-6-6--2--2-2-2-2--|
E|--------------------------------------------------|

e|-----------------------------------|
B|-----------------------------------|
G|-----------------------------------|
D|--4-4-4-4-4-4-4-4-4-4-4-4-4-4-4-4--|
A|--4-4-4-4-4-4-4-4-4-4-4-4-4-4-4-4--|
E|--2-2-2-2-2-2-2-2-2-2-2-2-2-2-2-2--|
PM -------------------------------

Chorus: "Please Take, Me Home..."
E|--------------------------------------|
B|--------------------------------------| 2x
G|--4-4-4-4--3-3-3-3--------------------|
D|--4-4-4-4--3-3-3-3--6-6-6-6--2-2-2-2--|
A|--2-2-2-2--1-1-1-1--6-6-6-6--2-2-2-2--|
E|--------------------4-4-4-4--0-0-0-0--|

Outro
e|----------------------------------------------------|
B|----------------------------------------------------| 1x
G|--8-8-8-8-8-8-8-8-8-8-8-8-8-8-8-8--4-4-4-4-4-4-4-4--|
D|--X-X-X-X-X-X-X-X-X-X-X-X-X-X-X-X--X-X-X-X-X-X-X-X--|
A|--6-6-6-6-6-6-6-6-6-6-6-6-6-6-6-6--2-2-2-2-2-2-2-2--|
E|----------------------------------------------------|

e|---------------------------------------------|
B|---------------------------------------------|
G|--8-8-8-8-8-8-8-8-8-8-8-8-8-8-8-8------------|
D|--X-X-X-X-X-X-X-X-X-X-X-X-X-X-X-X---------2--|
A|--6-6-6-6-6-6-6-6-6-6-6-6-6-6-6-6---------2--|
E|-----------------------------------2-2-2--0--|
Get this song at amazon.com      Ebay     Ringtones Ringtones  


Learn to play: Songwriting, Piano, Harmonica, Guitar
More Blink 182 lyrics available at Muzikum

Related Blink 182 Tabs

Pathetic tabs
Adams Song (guitar Tab) tabs
Chesire Cat Full Album - Guitar Tab tabs
Rock Show (live) tabs
Time tabs
21 Days Intro tabs
Down tabs
Adam\'s Song tabs
Untitled tabs
Man Overboard(right) tabs
Action tabs
Anthem Part Two Live tabs
Life Is So Boring tabs
Mutt tabs
It's Obvious tabs
Dude Ranch Album tabs
The Rock Show tabs
Adams Song (intro) tabs
Im Sorry tabs
Dont Leave Me (acoustic) tabs


Guitar Tabs









All tabs are property and copyright of their owners. All tabs provided for educational purposes only. Privacy Policy, DMCA

Online converter - videoconverter.com