Blink 182

Take Off Your Pants And Jacket - Bass Tab Bass Tabs



More from Blink 182

Blink 182 Tabs
Blink 182 Chords
Blink 182 Bass
Blink 182 Lyrics




This Is 100% Correct



Anthem Part Two


-INTRO:
G|----------------------------------------------------------|
D|----------------------------------------------------------|
A|--3333------3333------3333--55555555-00000000-88888888----|
E|----------------------------------------------------------|

G|----------------------------------------------------------|
D|----------------------------------------------------------| (x5)
A|--33333333-55555555-00000000-88888888---------------------|
E|----------------------------------------------------------|

G|----------------------------------------------------------|
D|----------------------------------------------------------|
A|--33333333-00000000---------33333333-00000000-------------|
E|--------------------11111111------------------(1)---------|

-VERSE:
G|----------------------------------------------------------|
D|----------------------------------------------------------| (x2)
A|--33333333-00000000---------33333333-00000000-88888888----|
E|--------------------11111111------------------------------|

-BREAK:
G|--------------------|
D|----14-----12----10-|
A|--12--12/10--10/8---|
E|--------------------|

-VERSE:
G|----------------------------------------------------------|
D|----------------------------------------------------------| (x2)
A|--33333333-00000000---------33333333-00000000-88888888----|
E|--------------------11111111------------------------------|

-BREAK:
G|--------------------|
D|----14-----12----10-|
A|--12--12/10--10/8---|
E|--------------------|

-CHOURS:
G|------------------------------------------------------------|
D|------------------------------------------------------------|
A|-----------3333--------------3333----0000----3333----0000---|
E|--0000-1111----3333-0000-1111----3333----1111----3333-----1-|

G|----------------------------------------------------------|
D|----------------------------------------------------------|
A|--33333333-00000000---------33333333-00000000-------------|
E|--------------------11111111------------------(1)---------|

-VERSE:
G|----------------------------------------------------------|
D|----------------------------------------------------------| (x2)
A|--33333333-00000000---------33333333-00000000-88888888----|
E|--------------------11111111------------------------------|

-BREAK:
G|--------------------|
D|----14-----12----10-|
A|--12--12/10--10/8---|
E|--------------------|

-CHOURS:
G|------------------------------------------------------------|
D|------------------------------------------------------------|
A|-----------3333--------------3333----0000----3333----0000---|
E|--0000-1111----3333-0000-1111----3333----1111----3333-----1-|

-OTHER BREAK:
G|-----------------------------|
D|-----------------------------| (x3)
A|--33333333-00000000----------|
E|-------------------11111111--|

G|---------------------------------17----17----17----17----17----17----|
D|------------------------------17-17-17-17-17-17-17-17-17-17-17-17-17-|
A|--33333333-00000000-888888888----------------------------------------|
E|---------------------------------------------------------------------|

-CHOURS:
G|------------------------------------------------------------|
D|------------------------------------------------------------|
A|-----------3333--------------3333----0000----3333----0000---|
E|--0000-1111----3333-0000-1111----3333----1111----3333-----1-|

-ENDING:
G|----------------------------------------------------------|
D|----------------------------------------------------------|
A|--33333333-00000000---------------------------------------|
E|--------------------11111111------------------------------|

G|----------------------------------------------------------|
D|----------------------------------------------------------|
A|--33333333-00000000---------------------------------------|
E|--------------------11111111------------------------------|

G|----------------------------------------------------------|
D|----------------------------------------------------------|
A|--33333333-55555555-00000000------------------------------|
E|-----------------------------11111111---------------------|

G|----------------------------------------------------------|
D|----------------------------------------------------------|
A|--33333333-55555555-00000000------------------------------|
E|-----------------------------(1)--------------------------|

~~~~~~~~~~~~~~~~~~~~~~~~~~~~~~~~~~~~~~~~~~~~~~~~~~~~~~~~~~~~~~~~~~~~~~~~~~~~~~~~~~~~~~~~~~~~~~~~~~~~~~

Online Songs

Intro:4x
G---------------------------------------------|
D---------------------------------------------|
A-00000000-22222222-55555555-77777777---------|
E---------------------------------------------|
Josie your my.....

Intro#2 with guitar picking.2x
G---------------------------------------------|
D---------------------------------------------|
A-00000000-22222222-55555555-77777777---------|
E---------------------------------------------|

Verse:2x
G---------------------------------------------|
D---------------------------------------------|
A-00000000-55555555-9999-7777-00000000--------|
E---------------------------------------------|

Intro#2:2x
G---------------------------------------------|
D---------------------------------------------|
A-00000000-22222222-55555555-77777777---------|
E---------------------------------------------|

Verse:Why am I still.....2x
G---------------------------------------------|
D---------------------------------------------|
A-00000000-55555555-9999-7777-00000000--------|
E---------------------------------------------|

Chorus:2x
G---------------------------------------------|
D---------------------------------------------|
A-555555---------7777777-5555555--------------|
E--------5555555------------------------------|

Verse:2x
G---------------------------------------------|
D---------------------------------------------|
A-00000000-55555555-9999-7777-00000000--------|
E---------------------------------------------|

Chorus:2x
G---------------------------------------------|
D---------------------------------------------|
A-555555---------7777777-5555555--------------|
E--------5555555------------------------------|

Bridge: 2x
G---------------------------------------------|
D---------------------------------------------|
A----55----------77777777---------------------|
E-22----55555555------------------------------|

Bridge second half:2x
G---------------------------------------------|
D---------------------------------------------|
A----------55555555----------77777777---------|
E-22222222----------55555555------------------|

Chorus:2x
G---------------------------------------------|
D---------------------------------------------|
A-00000000-55555555-9999-7777-00000000--------|
E---------------------------------------------|

Ending:
G---------------------------------------------|
D---------------------------------------------|
A-----5---------------------------------------|
E-------2222----------------------------------|

~~~~~~~~~~~~~~~~~~~~~~~~~~~~~~~~~~~~~~~~~~~~~~~~~~~~~~~~~~~~~~~~~~~~~~~~~~~~~~~~~~~~~~~~~~~~~~~~~~~~~~

First Date

[Standard tuning]

[Intro/Pre-Chorus]
G-------------------------------------5-----
D--------------------3333333355555555-------
A---3333333355555555------------------------
E-------------------------------------------

[Verse]
G---------------------------------------
D---------------------------------------
A---333333333333333----------------3----
E-------------------33333333111113------

[Chorus]
G---------------------------------------
D---------------------------------------
A---333-222-----------------------------
E--------------5555555511113333---------


[Break]
G--------------------------------------
D--------------------------------------
A3333333------------------------------
E--------------00000001111111333333----


[Optional guitar thing for the break]
G----------------------------------------
D----------222-----333-----00000000------
A--3333333-----333-----333---------------
E----------------------------------------

~~~~~~~~~~~~~~~~~~~~~~~~~~~~~~~~~~~~~~~~~~~~~~~~~~~~~~~~~~~~~~~~~~~~~~~~~~~~~~~~~~~~~~~~~~~~~~~~~~~~~~

Happy Holidays You Bastard
Standard Tuning


Verse
G|-----------------------------------------------------------------|
D|-----------------------------------------------------------------|
A|-2-2-2-2-2-2-2-2-----------------2-2-2-2-2-2-2-2-----------------|
E|-----------------2-2-2-2-2-2---------------------2-2-2-2-2-2-----|

Pre-Chorus
G|-----------------------------------------------------------------|
D|-----------------------------------------------------------------|
A|---------------------------------2-2-2-2-------------------------|
E|-4-4-4-4-4-4-----0-0-0-0-0-0-------------2-2-2-2-0---------2-2-2-|

Chorus
G|-----------------------------------------------------------------|
D|-----------------------------------------------------------------|
A|-2-2-2-2-------------------------2-2-2-2-------------------------|
E|---------2-2-2-2-0-0-0-0-0-0-0-0---------2-2-2-2-0-0-0-0-0-0-0-0-|

G|---------------------------------|
D|---------------------------------|
A|-2-2-2-2-------------------------|
E|---------2-2-2-2-0-0-0-0-2-2-2-2-|

Verse
Pre-Chorus
Chorus (end on B)

~~~~~~~~~~~~~~~~~~~~~~~~~~~~~~~~~~~~~~~~~~~~~~~~~~~~~~~~~~~~~~~~~~~~~~~~~~~~~~~~~~~~~~~~~~~~~~~~~~~~~~

Story of a Lonely guy
Standard Tuning


Intro
G---9--9-9---9-9-9----6--6-6---2-4-6-
D-77-77-7--99-9-9-9-44-44-4--00-0-0-0
A------------------------------------
E------------------------------------
con't
G---9--9-9---9-9-9----6--6-6---2-4-2-
D-77-77-7--99-9-9-9-44-44-4--00-0-0-0
A------------------------------------
E------------------------------------

Verse 1
G------------------------------------
D------------------------------------
A-00000000-22222222-44444444-55555555 4x
E------------------------------------

Pre-Chorus
G------------------------------------
D------------------------------------
A-44444444-55555555----------77777777 2x
E-------------------55555555---------

Chorus
G------------------------------------
D------------------------------------
A----------77777777-99999999-55555555 4x
E-55555555---------------------------

Intro
G---9--9-9---9-9-9----6--6-6---2-4-6-
D-77-77-7--99-9-9-9-44-44-4--00-0-0-0
A------------------------------------
E------------------------------------
con't
G---9--9-9---9-9-9----6--6-6---2-4-2-
D-77-77-7--99-9-9-9-44-44-4--00-0-0-0
A------------------------------------
E------------------------------------

Verse 2
G------------------------------------
D------------------------------------
A-00000000-22222222-44444444-55555555 4x
E------------------------------------

Pre-Chorus
G------------------------------------
D------------------------------------
A-44444444-55555555----------77777777 2x
E-------------------55555555---------

Chorus
G------------------------------------
D------------------------------------
A----------77777777-99999999-55555555 4x
E-55555555---------------------------

Interlude
G----------------------------------------------------------------------
D----------------------------------------------------------------------
A-44444444-55555555------------------44444444-22222222-----------------
E-------------------0000000000000000-------------------0000000000000000
con't
G------------------------------------------------------
D----------------------------77777777------------------
A-44444444-55555555-77777777----------44444444-22222222
E------------------------------------------------------

Chorus
G------------------------------------
D------------------------------------
A----------77777777-99999999-55555555 5x
E-55555555---------------------------
last time...
G--------------------------------------------
D--------------------------------------------
A----------77777777-99999999-55-55-55-5h7p5--
E-55555555----------------------------------5

~~~~~~~~~~~~~~~~~~~~~~~~~~~~~~~~~~~~~~~~~~~~~~~~~~~~~~~~~~~~~~~~~~~~~~~~~~~~~~~~~~~~~~~~~~~~~~~~~~~~~~

The Rock Show
Standard Tuning

Intro (x2):

G-----------------------------------------|
D-----------------------------------------|
A------------------55555555-77777777------|
E-5555555555555555------------------------|

G-----------------------------------------|
D-----------------------------------------|
A-----------------------------------------|
E-5555555555555555------------------------|

Verse (x2):

G-----------------------------------------|
D-----------------------------------------|
A------------------55555555-77777777------|
E-5555555555555555------------------------|

Play Verse (x2)

Verse

Chorus (x3):

G---------------------------|
D---------------------------|
A--------------5555---------|
E--5555---2222--------------|

G-----------------------------------------|
D-----------------------------------------|
A777777775555555577777777--55555555----|
E-----------------------------------------|

G---------------------------|
D---------------------------|
A--77777777---5---4---------|
E---------------------------|

Play Verse (x2)

Verse

Chorus again

Break (x2)

G----------------------------------------------------|
D----------------------------------------------------|
A-9999999--7--555555--4--------------4-5-77777777----|
E-----------------------7--555555--7-----------------|

Chorus again

Play Verse until it ends.

~~~~~~~~~~~~~~~~~~~~~~~~~~~~~~~~~~~~~~~~~~~~~~~~~~~~~~~~~~~~~~~~~~~~~~~~~~~~~~~~~~~~~~~~~~~~~~~~~~~~~~

Stay Together For The Kids
Standard Tuning

Bass starts at 0:40 with...

CHORUS ("So here's your holiday...")
G------------------------------------|
D------------------------------------|
A------------------------------------| (x4)
E--3333333333333333-2222222222222222-|

Bass doesn't play again until 1:46...

CHORUS

BREAK
G------------------|
D------------------|
A--5---------------| (x4)
E------5---3---5---|

G------------------------------------|
D------------------------------------|
A------------------------------------| (x2)
E--3333333333333333-2222222222222222-|

CHORUS

ENDING ("It's not right...It's not right...")
***repeat this until song fades***
G------------------------------------|
D------------------------------------|
A------------------------------------|
E--3333333333333333-2222222222222222-|

~~~~~~~~~~~~~~~~~~~~~~~~~~~~~~~~~~~~~~~~~~~~~~~~~~~~~~~~~~~~~~~~~~~~~~~~~~~~~~~~~~~~~~~~~~~~~~~~~~~~~~

Roller Coaster
Standard Tuning

INTRO
G-------------------|
D-------------------|
A----------555555---|
E--555555-----------|

CHORUS ("Breathe in deeply...")
*This time, you'll only play it once (after 1/2
of this being only guitar), but every other time
you play it twice
G----------------------------------------|
D----------------------------------------|
A--------------------55555555------5555--| (x2)
E--5555555555555555-----------7777-------|

POST-CHORUS
G----------------------------------------|
D----------------------------------------|
A------------------------------55555555--| (x2)
E--5555555555555555--00000000------------|

VERSE ("Leave me standing here...")
G--------------------------|
D--------------------------|
A--------5555--------5555--| (x4)
E--5555--------7777--------|

POST-CHORUS

VERSE

CHORUS

BREAK
**Just drums for a bit, then...
G----------------------------------------|
D----------------------------------------|
A------------------------------55555555--| (x2)
E--5555555555555555--00000000------------|

VERSE

CHORUS

ENDING
G---------------------------------------|
D---------------------------------------|
A-----------555-------------------------|
E-555555555------5-(hold note and fade)-|

~~~~~~~~~~~~~~~~~~~~~~~~~~~~~~~~~~~~~~~~~~~~~~~~~~~~~~~~~~~~~~~~~~~~~~~~~~~~~~~~~~~~~~~~~~~~~~~~~~~~~~

Reckless Abandon
Standard Tuning


Intro:
G|--------------------------------------|
D|--------------------------------------|
A|-2222--------------2222---------------| x2
E|-----0000-4444-2222----0000-4444-2222-|

Verse:
G|------------------------------------------------------------------|
D|------------------------------------------------------------------| x1
A|-2222222222222222----------------2222222222222222-----------------|
E|-----------------2222222222222222----------------22222222---------|

Chorus: x2
G|----------------------------------|----------------------------------|
D|----------------------------------|----------------------------------|
A|-2222222222222222-----------------|----------------------------------|
E|-----------------0000000000000000-|-44444444222222220000000000000000-|

Intro x2
Verse x1
Chorus x1

Bridge:
G|---------------------|
D|---------------------|
A|-2-----2-----2-----2-|
E|--0-4-2-0-4-2-0-4-2--|

Break
Chorus x1

~~~~~~~~~~~~~~~~~~~~~~~~~~~~~~~~~~~~~~~~~~~~~~~~~~~~~~~~~~~~~~~~~~~~~~~~~~~~~~~~~~~~~~~~~~~~~~~~~~~~~~

Everytime I Look For You
Standard Tuning


Intro (bass comes in at 0:07)
G-------------
D------------- X4
A----------7--
E--7----9-----

Pre-Verse
G-----------------------
D----------------------- X2
A-------9999-7777-------
E--7777-----------9999--

Verse ("One more point of contention...")
G-----------------------
D----------------------- X2
A-----------------7777--
E--77777777--9999-------

G-------------
D------------- X2
A----------7--
E--7----9-----

Chorus ("Every time I look for you...")
G-----------------------
D----------------------- X4
A------------7777-------
E--44444444-------7777--

G--------------------
D--------------------
A--7777777777777777--
E--------------------

Pre-Verse
G-----------------------
D----------------------- X2
A-------9999-7777-------
E--7777-----------9999--

Verse
G-----------------------
D----------------------- X2
A-----------------7777--
E--77777777--9999-------

Chorus
G-----------------------
D----------------------- X4
A------------7777-------
E--44444444-------7777--

Bridge (Only guitar for a bit...then...)
G----------------------------------
D---------------------------------- X4
A----------9999999-77777777777777--
E--7777777-------------------------

Outro-Chorus ("Every time I look for you...")
G-----------------------
D----------------------- X6
A------------7777-------
E--44444444-------7777--

G------------------------------
D------------------------------
A------------7-7-7-(hold out)--
E--44444444--------------------


~~~~~~~~~~~~~~~~~~~~~~~~~~~~~~~~~~~~~~~~~~~~~~~~~~~~~~~~~~~~~~~~~~~~~~~~~~~~~~~~~~~~~~~~~~~~~~~~~~~~~~

Give Me One Good Reason
Standard Tuning

INTRO (play softly and hold each note a couple seconds)
G--------------------------------|
D--------------------------------|
A------2-------2---4---0---4---2-|
E--0-------0---------------------|

VERSE ("Mom and dad...")
G--------------------------------------------------|
D--------------------------------------------------|
A--------22222-------22222-44444-00000-44444-22222-|
E--00000-------00000-------------------------------|

AFTER VERSE
G---------------------------|
D---------------------------|
A--------22222-------22222--|
E--00000-------00000--------|

VERSE

AFTER VERSE

CHORUS ("So give me one good reason...")
G-----------------------------------------------|
D-----------------------------------------------|
A--------------22222222--------------2222--0000-| (x2)
E--0000--4444------------0000--4444-------------|

INTRO

VERSE

AFTER VERSE (x2)

CHORUS

BREAK
G-----------------------------------------|
D-----------------------------------------|
A--44444444--00000000--44444444--22222222-| (x2)
E-----------------------------------------|

G----------------|
D----------------|
A----------------|
E--0-(hold note)-|

CHORUS

END ON
G-----|
D-----|
A-----|
E--0--|

~~~~~~~~~~~~~~~~~~~~~~~~~~~~~~~~~~~~~~~~~~~~~~~~~~~~~~~~~~~~~~~~~~~~~~~~~~~~~~~~~~~~~~~~~~~~~~~~~~~~~~

Shut Up
Standard Tuning

Intro - x 4
G|---------------------------------------|
D|---------------------------------------|
A|----------4444-5555--------------------| X 4
E|--55555555-----------------------------|

Verse- Start on 'Shut the *** up...'
G|---------------------------------------|
D|---------------------------------------|
A|----------4444-5555--------------------| X 4
E|--55555555-----------------------------|

Break In Verse - Only guitar

Continue Verse - Continue on ' I'll run away'
G|---------------------------------------|
D|---------------------------------------|
A|----------4444-5555--------------------| X 6
E|--55555555-----------------------------|

Pre-chorus - Starts on 'I'll never ask permission'
G|---------------------------------------|
D|---------------------------------------|
A|--555555-------------------------------| X 2
E|--------55555555-----------------------|

Chorus - Starts on 'I'm not coming home...'
G|---------------------------------------|
D|---------------------------------------|
A|--22222222-55555555--------------------| X 2
E|---------------------------------------|

Verse x 4 ' I got too ***ed up again'
Pre-chorus x 2 ' I'll never ask permission..'
Chorus x 2 ' I'm not coming home...'

Break ' I'll run away'....then ' I think it's time that i should
leave'
G|---------------------------------------|
D|---------------------------------------|
A|-77777777-9999-5555--------------------| X 4
E|---------------------------------------|

Verse x 4 - No singing
Pre-chorus x 2 ' I'll never ask permission'
Chorus x 2 ' I'm not coming home...'
Verse x 4 'I'll run away'

End On 'Leave'
G|---------------------------------------|
D|---------------------------------------|
A|---------------------------------------| X 4
E|-5-------------------------------------|


~~~~~~~~~~~~~~~~~~~~~~~~~~~~~~~~~~~~~~~~~~~~~~~~~~~~~~~~~~~~~~~~~~~~~~~~~~~~~~~~~~~~~~~~~~~~~~~~~~~~~~

Please Take Me Home
Standard Tuning


[Verse:] (x2)
G|---------------------------------------------------------------
D|---------------------------------------------------------------
A|-2-2-2-2-2-2-2-4-4-4-4-4-4-4-4---------------------------------
E|-------------------------------4-4-4-4-4-4-4-4-0-0-0-0-0-0-0-0-


G|---------------------------------------------------------------|
D|---------------------------------------------------------------|
A|-2-2-2-2-2-2-2-4-4-4-4-4-4-4-4-----------------7-7-7-7-7-7-7-7-|
E|-------------------------------4-4-4-4-4-4-4-4-----------------|

[Pre-chorus:]
G|-----------------------------------------------
D|-----------------------------------------------
A|-------------2-2-2-2-2-------------------------
E|-0-0-0-0-0---------------4-4-4-4-4---2-2-2-2-2-


G|---------------------------------------------------|
D|---------------------------------------------------|
A|---------------------------------------------------|
E|-0-0-0-0-0-0-0-0-0-0-0-0-0-0-0-0-0-0-0-0-0-0-0-0-0-|

[Chorus:]
G|-----------------------------------------------------------------
D|-----------------------------------------------------------------
A|-2---2-2-2-2-2-2-1---1-1-1-1-1-1---------------------------------
E|---------------------------------4---4-4-4-4-4-4-0---0-0-0-0-0-0-


G|---------------------------------------------------|
D|---------------------------------------------------|
A|-2---2-2-2-2-2-2-1---1-1-1-1-1-1-------------------|
E|---------------------------------4---4-4-4-4-4-4-0-|

[Interlude:] (Play [A] x7, [B] x2, [C] x2, [D] x2, and end with [E])
G|-----|-----------------------------------------------------------------|
D|-[A]-|-------------------------------[B]-------------------------------|
A|-2-2-|-2-2-2-2-2-2-2-2-4-4-4-4-4-4-4-4-6-6-6-6-6-6-6-6-2-2-2-2-2-2-2-2-|
E|-----|-----------------------------------------------------------------|


G|-----------------------------------------------------------------|
D|-------------------------------[C]-------------------------------|
A|-2-2-2-2-2-2-2-2-1-1-1-1-1-1-1-1---------------------------------|
E|---------------------------------4-4-4-4-4-4-4-4-0-0-0-0-0-0-0-0-|


G|-------------------------------------------------------------|
D|-----------------------------[D]-----------------------------|
A|-2---2---2-2-2-1---1---1-1-1---------------------------------|
E|-----------------------------4---4---4-4-4-0---0-0-0-0-0-0-0-|


G|---------------------------------|
D|---------------[E]---------------|
A|---------------------------------|
E|-2-2-2-2-2-2-2-2-2-2-2-2-2-2-2-2-|

[Order:]
Intro
Verse
Pre-chorus
Chorus
Verse
Pre-chorus
Chorus (x2)
Interlude
Chorus (x2)



Have Fun!



Get this song at amazon.com      Ebay     Ringtones Ringtones  


Learn to play: Songwriting, Piano, Harmonica, Guitar
More Blink 182 lyrics available at Muzikum

Related Blink 182 Bass Tabs

Unreleased Demo (instrumental) bass
The Grandpa Song bass
Adam's Song Real Ver bass
T V bass
Reckless Abandon bass
Snake Charmer bass
Dude Ranch Full Album - Bass Tab bass
Wrecked Him bass
All Of This bass
Easy Target 100% bass
Sometimes bass
Feels So Good bass
Ben Wah Balls bass
Take Off Your Pants And Jacket (album) bass
Aliens Exist bass
After Midnight Live bass
Asthenia(perfect) bass
Fentoozler bass
Dicklips bass
Wendy Clear bass


Guitar Tabs









All tabs are property and copyright of their owners. All tabs provided for educational purposes only. Privacy Policy, DMCA