Blink 182

T V Bass Tabs



More from Blink 182

Blink 182 Tabs
Blink 182 Chords
Blink 182 Bass
Blink 182 Lyrics



Listen to it for the timing it's really easy to figure out

Intro
G--------------------10---10-10--------------------10---10-10-|
D----10---10-10---8-8--8-8--8------10---10-10---8-8--8-8--8---|
A-8-8--8-8--8-------------------8-8--8-8--8-------------------|
E-------------------------------------------------------------|

G-------------------10---10-10-------17-----17--17-----10----10-10-|
D----10---10-10--8-8--8-8--8----15-15--15-15--15-----8-8--8-8--8---|
A-8-8--8-8--8------------------------------------------------------|
E------------------------------------------------------------------|

G-5-5-5-5-5-5-5-5--10-10-10-10-10-10-10-10--8-8-8-8-8-8-8-8--10-10-10-10-10-10-10-10|
D-3-3-3-3-3-3-3-3--8--8--8--8--8--8--8--8---6-6-6-6-6-6-6-6--8--8--8--8--8--8--8--8-|
A-----------------------------------------------------------------------------------|
E-----------------------------------------------------------------------------------|

G-------------------------------------|
D-33333333-55555555-77777777-88888888-|
A-------------------------------------|
E-------------------------------------|

Verse
G---------33333333-|
D-33333333---------|
A------------------|
E------------------|

Chorus
G---55--55-|
D-33--33---|
A----------|
E----------|

Taken from The BassMasta -- http://www.tabs-database.com



Get this song at amazon.com      Ebay     Ringtones Ringtones  


Learn to play: Songwriting, Piano, Harmonica, Guitar
More Blink 182 lyrics available at Muzikum

Related Blink 182 Bass Tabs

Fallen Interlude bass
I Miss You bass
Dysentery Gary bass
Asthenia(perfect) bass
Peggy Sue bass
Pathetic bass
All The Small Things(easy) bass
First Date bass
Mutt bass
Man Overboard Intro(easy Way) bass
Action(feeling This) bass
What\'s My Age Again bass
Blew Job bass
Carousel Live bass
Not Now 100% Correct bass
Easy Target bass
Depends bass
Josie bass
Unreleased Demo (instrumental) bass
D***it bass


Guitar Tabs









All tabs are property and copyright of their owners. All tabs provided for educational purposes only. Privacy Policy, DMCA