Blink 182

Sumo Song Tabs



More from Blink 182

Blink 182 Tabs
Blink 182 Chords
Blink 182 Bass
Blink 182 Lyrics



Song - sumo song
Band - Burning Snowflake
Tuning - standard
origanaly by Bob The Lew Scherer,Mike McHugh, And Joe Granato !GOOD LUCK!
if you want the lyrics email me at BIGDOGBOB615@aol.com


E|-----------------------------------------|
B|-----------------------------------------|
G|-----------------------------------------|
D|-----0-4-0-----0-2-0-----0-2-0----0-2-0--| 2x
A|-5-5-----------------2-2-----------------|
E|-----------2-2-----------------3-3-------|

E|-----------------------------------------|
B|-----------------------------------------|
G|-777777--------444444--------------------|
D|-777777-444444-444444-555555-------------| 4x
A|-555555-444444-222222-555555-------------|
E|--------222222--------333333-------------|

E|-----------------------------------------|
B|-----------------------------------------|
G|-----------------------------------------|
D|-777-555-222-5---------------------------| 1x
A|-777-555-222-5---------------------------|
E|-555-333-000-3--55-33-00-33-5-5-5--------|

E|-----------------------------------------|
B|-----------------------------------------|
G|-----------------------------------------|
D|-///////////////////////////////////////-| *pik scratch*
A|-///////////////////////////////////////-|
E|-///////////////////////////////////////-|

E|-----------------------------------------|
B|-----------------------------------------|
G|-777777----------------------------------|
D|-777777-444444-555555-777777-------------| 3x
A|-555555-444444-555555-777777-------------|
E|--------222222-333333-555555-------------|

E|-----------------------------------------|
B|-----------------------------------------|
G|-777-----444-----7-----------------------|
D|-777-444-444-5-7-7-----------------------| 1x
A|-555-444-222-5-7-5-----------------------|
E|-----222-----3-5-------------------------|


Get this song at amazon.com      Ebay     Ringtones Ringtones  


Learn to play: Songwriting, Piano, Harmonica, Guitar
More Blink 182 lyrics available at Muzikum

Related Blink 182 Tabs

Anthem Pt Ii tabs
Violence (live) tabs
Violence tabs
The Fallen Interlude tabs
Anthem Part Two Live tabs
21 Days tabs
Enema Of The State Album tabs
Marlboro Man tabs
I Miss You Live tabs
Blink 182 tabs
Cheshire Cat Album tabs
The Country Song Solo tabs
Track 15 tabs
Adams Song Live3 tabs
I Wont Be Home For Christmas tabs
M&ms tabs
I'm Lost Without You(acoustic Chords) tabs
78 People tabs
Fuck A Dog tabs
The Party Song tabs


Guitar Tabs









All tabs are property and copyright of their owners. All tabs provided for educational purposes only. Privacy Policy, DMCA