Blink 182

Story Of A Lonely Guy Tabs



More from Blink 182

Blink 182 Tabs
Blink 182 Chords
Blink 182 Bass
Blink 182 Lyrics

Intro, I'm 100% positive its right

e :-----------------|-----------------|-----------------|-------------------------|

B :-------10-10-10--|12-12-12-12-12-12|12-12-12-------10|10-10-12-12-12-10-10-10--|

G :-9-9-9-----------|-----------------|---------9-9-9---|-------------------------|

D :-----------------|-----------------|-----------------|-------------------------|

A :-----------------|-----------------|-----------------|-------------------------|

E :-----------------|-----------------|-----------------|-------------------------|



Verse

Push it out fake a smile...



Pm........................................................................



e :-----------------|-----------------|-----------------|-----------------|

B :-----------------|-----------------|-----------------|-----------------|

G :-----------------|44444444444444444|66666666666666666|77777777777777777|

D :77777777777777777|44444444444444444|66666666666666666|77777777777777777| 4X

A :77777777777777777|22222222222222222|44444444444444444|55555555555555555|

E :55555555555555555|-----------------|-----------------|-----------------|







Pick Scrape/Slide on the first time through, only the first



She makes me feel...

e :-----------------|-----------------|-----------------|-------------------|

B :-----------------|-----------------|-----------------|-------------------|

G :-----------------|9-9-9-9-9-9-9-9-9|-----------------|7-7-7-7-7-7-7-7----|

D :7-7-7-7-7-7-7-7-7|9-9-9-9-9-9-9-9-9|4-4-4-4-4-4-4-4-4|7-7-7-7-7-7-7-7----|

A :7-7-7-7-7-7-7-7-7|7-7-7-7-7-7-7-7-7|4-4-4-4-4-4-4-4-4|5-5-5-5-5-5-5-5----|

E :5-5-5-5-5-5-5-5-5|-----------------|2-2-2-2-2-2-2-2-2|-------------------|



Bridge



e :-----------------|-----------------|-----------------|-----------------|

B :-----------------|-----------------|-----------------|-----------------|

G :-----------------|-----------------|9-9-9-9-9-9-9-9-9|9-9-9-9-9-9------|

D :-----7--------7--|-------7-------7-|9-9-9-9-9-9-9-9-9|9-9-9-9-9-9------|

A :-0-0---0-0-0----0|--5-5----5-5-5--5|7-7-7-7-7-7-7-7-7|7-7-7-7-7-7------| 2x

E :-----------------|-----------------|-----------------|-----------------|





e :-----------------|-----------------|-----------------|-----------------|

B :-----------------|-----------------|-----------------|-----------------|

G :-----------------|-----------------|-----------------|-----------------|

D :-------7-------7-|-----7-------7---|----7-------7----|--7-------7------|

A :-0--0----0-0-0--0|-5-5---5-5-5---5-|7-7---7-7-7---7-7|7---7-7-7--------|

E :-----------------|-----------------|-----------------|-----------------|





e :-----------------|------------------|

B :-----------------|------------------|

G :-----------------|------------------|

D :-----7-------7---|-----7---------7--|

A :-0-0---0-0-0---0-|5-5-----5-5-5---5-|

E :-----------------|------------------|



e :-----------------|-----------------|--------|

B :-----------------|-----------------|--------|

G :--7-7-----6-6----|--7-7-----6-6----|--------|

D :--7-7-----6-6----|--7-7-----6-6----|-7------|

A :--5-5-----4-4----|--5-5-----4-4----|-7------|

E :-----------------|-----------------|-5------|

Get this song at amazon.com      Ebay     Ringtones Ringtones  


Learn to play: Songwriting, Piano, Harmonica, Guitar
Also available at Muzikum: Blink 182 - Story Of A Lonely Guy lyrics

Related Blink 182 Tabs

Give Me One Good Reason Live tabs
78 People tabs
Enema Of The State Album tabs
Go tabs
I'm Gay tabs
21 Days3 tabs
A Dog tabs
Macca Is Gay tabs
Adams Song Interlude tabs
Adams Song Live2 tabs
Time To Wake Up tabs
Man Overboard(right) tabs
Toms Song tabs
Grandpa Song tabs
Time tabs
Roller Coaster tabs
Alians Exist tabs
Dude Ranch Album tabs
Growing Up tabs
Strings tabs


Guitar Tabs









All tabs are property and copyright of their owners. All tabs provided for educational purposes only. Privacy Policy, DMCA