Blink 182

Story Of A Lonely Guy Bass Tabs



More from Blink 182

Blink 182 Tabs
Blink 182 Chords
Blink 182 Bass
Blink 182 Lyrics



BAND: BLINK182
SONG: Story Of A Lonely Guy
ALBUM: Take Off Your Pants And Jacket
TABBED BY: BLINK182FOREVER69

Intro
G|-----9---9--9-----9--9--9----6---6---6-----4---6-7--
D|--77---7--7---7-77-7--7---44---4---4--4-22--2-------
A|---------------------------------------------------- x2
E|----------------------------------------------------

Verse
G|-------------------------------------
D|-------------------------------------
A|-00000000-22222222-44444444-55555555- x4
E|-------------------------------------

Prechorus
G|------------------------------------
D|------------------------------------
A|-00000000-77777777-4444444-55555555- x2
E|------------------------------------

Chorus
G|-------------------------------------
D|-------------------------------------
A|----------------------------55555555- x4
E|-55555555-00000000-22222222----------

Intro
G|-----9---9--9-----9--9--9----6---6---6-----4---6-7--
D|--77---7--7---7-77-7--7---44---4---4--4-22--2-------
A|---------------------------------------------------- x2
E|----------------------------------------------------

Verse
G|-------------------------------------
D|-------------------------------------
A|-00000000-22222222-44444444-55555555- x4
E|-------------------------------------

Prechorus
G|------------------------------------
D|------------------------------------
A|-00000000-77777777-4444444-55555555- x2
E|------------------------------------

Chorus
G|-------------------------------------
D|-------------------------------------
A|----------------------------55555555- x4
E|-55555555-00000000-22222222----------

Bridge
G:------------------------------------
D:------------------------------------
A:-44444444-55555555------------------ x2
E:-------------------0000000000000000-

G|------------------------------------------------------
D|------------------------------------------------------
A|-44444444-55555555-7777777777777777-44444444-55555555- x1
E|------------------------------------------------------

Chorus
G|-------------------------------------
D|-------------------------------------
A|----------------------------55555555- x6
E|-55555555-00000000-22222222----------

Taken from The BassMasta -- http://www.tabs-database.com



Get this song at amazon.com      Ebay     Ringtones Ringtones  


Learn to play: Songwriting, Piano, Harmonica, Guitar
Also available at Muzikum: Blink 182 - Story Of A Lonely Guy lyrics

Related Blink 182 Bass Tabs

Stay Together 4 The Kids bass
Penetrated bass
Family Reunion bass
All Of This bass
Not Now bass
D***it bass
I Know A Guy Tom, Mark, And Travis Show bass
Whats My Age Again Live bass
Shut Up bass
Dancing With Myself bass
Album bass
All The Small Things(easy) bass
Kaleidoscope bass
Romeo & Rebecca bass
Untitled bass
My Pet Sally bass
Dumpweed bass
I Know A Guy bass
First Date W/ Lyrics bass
All Teh Small Things bass


Guitar Tabs









All tabs are property and copyright of their owners. All tabs provided for educational purposes only. Privacy Policy, DMCA