Blink 182

Stay Together For The Kids (with Optional Second Verse) Bass Tabs



More from Blink 182

Blink 182 Tabs
Blink 182 Chords
Blink 182 Bass
Blink 182 Lyrics



Stay Together For The Kids - Blink 182
Tabbed by Raven


No Bass Until 00:40
Straight in with the CHORUS ("So here's your holiday")

G|---------------------------------
D|---------------------------------
A|---------------------------------
E|-33333333333333332222222222222202 (x4)

Some people choose not to have any bass in the second verse,
but I was taught to put this riff in at 01:20

G|-----7----7----7----7------7----7----7----7------7----7----7----7------9----9----9----9
D|-0-0--0-0--0-0--0-0----9-9--9-9--9-9--9-9----7-7--7-7--7-7--7-7----7-7--7-7--7-7--7-7--
A|---------------------------------------------------------------------------------------
E|--------------------------------------------------------------------------------------- (x2)

CHORUS ("So here's your holiday")

G|---------------------------------
D|---------------------------------
A|---------------------------------
E|-33333333333333332222222222222202 (x4)

BREAK

G|-----------------
D|-----------------
A|-5---------------
E|-----5---3---5--- (x4)


G|---------------------------------
D|---------------------------------
A|---------------------------------
E|-33333333333333332222222222222202 (x2)


CHORUS ("So here's your holiday")

G|---------------------------------
D|---------------------------------
A|---------------------------------
E|-33333333333333332222222222222202 (REPEAT UNTIL FADE)



Get this song at amazon.com      Ebay     Ringtones Ringtones  


Learn to play: Songwriting, Piano, Harmonica, Guitar
More Blink 182 lyrics available at Muzikum

Related Blink 182 Bass Tabs

Always (perfect) bass
Wasting Time bass
Lemmings bass
T V bass
Girl Next Door bass
Marlboro Man bass
Satan Tune bass
The Fallen Interlude bass
Carousel (bridge) bass
Story Of A Lonely Guy bass
Snake Charmer bass
Please Take Me Home bass
Daze Gone By bass
Down bass
Enema Of The State Full Album - Bass Tab bass
Wirecked Him bass
Happy Holidays U B****** bass
Don\'t Leave Me bass
Adams Song bass
I Know A Guy bass


Guitar Tabs









All tabs are property and copyright of their owners. All tabs provided for educational purposes only. Privacy Policy, DMCA

Online converter - videoconverter.com