Blink 182

Snake Charmer Bass Tabs



More from Blink 182

Blink 182 Tabs
Blink 182 Chords
Blink 182 Bass
Blink 182 Lyrics

intro


G |------------------------------- ---------------------|
D |------------------------------- ---------------------|
A |---0-0-0-0-2p0---0-0-0-0-4p0--- x4. Then hit --------|
E |-------------------------------------- ---0----------|

Intro riff 2

G |---------------------------------|
D |---------------------------------|
A |--4p0-0-0-0-0-0------------------|
E |---------------------4-----------|

Verse

G |-----------------------------------|
D |-----------------------------------|
A |-----------------------------------|
E |----0-0-0--------------------------|
At very end of verse

Chorus

G |--------------------------------------------------------------------|
D |--------------------------------------------------------------------|
A |--------------5--------------5-------11--9--5--------------5--------|
E |---5--4--2-------5--4--2-------5---------------5--4--2--------------|


VERSE 2 PLAY INTRO RIFF

BRIDGE
G |---------------------------------------|
D |---------------------------------------|
A |----------------5--7-------------5-----|
E |---5--2--0------------5--2--0----------|
Get this song at amazon.com      Ebay     Ringtones Ringtones  


Learn to play: Songwriting, Piano, Harmonica, Guitar
More Blink 182 lyrics available at Muzikum

Related Blink 182 Bass Tabs

Carousel Buddha bass
Dicklips bass
Sometimes bass
Dammit (best You'll Find) bass
Snake Charmer bass
Kaleidoscope bass
I Miss You bass
Dick Lips bass
Marlboro Man bass
Aliens Exist bass
Enthused (100% Perfect) bass
Feels So Good bass
Let Her Go bass
Hold On bass
Chesire Cat bass
Time bass
Wrecked Him bass
Violence Piano Part On Bass bass
Fallen Interlude bass
Family Reuinion bass


Guitar Tabs









All tabs are property and copyright of their owners. All tabs provided for educational purposes only. Privacy Policy, DMCA