Blink 182

Shit Piss Tabs



More from Blink 182

Blink 182 Tabs
Blink 182 Chords
Blink 182 Bass
Blink 182 Lyrics

-------------------------------------------------------------------------------
			               SHIT PISS... - Blink-182
-------------------------------------------------------------------------------

Ok people this is my first tab and its pretty accurate, its the only one on
the web, if you do alter it a bit and post it on the web give me some
credit, just say tab done originally by Jason. So heres Blink 182's "Shit
piss fuck cunt coksucker motherfucker tits fart turd n' twat"

 intro    palm mute*
e------  ------------------------------------------------
B------  ------------------------------------------------
G------  ---*7777777*---*4444444*--*-6666666*--*7777777*-
D----6-  ---*7777777*--*-4444444*--*-6666666*--*7777777*-
A----6-  ---*5555555*---*2222222*--*-4444444*--*5555555*-
E----4-  ------------------------------------------------

e--------------------------------------------------------
B--------------------------------------------------------
G----*7777* 7---*4444*--4----*6666*--6---*7777*--7-------
D----*7777*-7---*4444*--4----*6666*--6---*7777*--7-------
A----*5555*-5---*2222*--2----*4444*--4---*5555*--5-------
E--------------------------------------------------------

ending
e------------------------------------------------ ----------
B------------------------------------------------ ----------
G----7777777------4444444-----6666666----7777777- ----------
D----7777777------4444444-----6666666----7777777- --6-------
A----5555555------2222222-----4444444----5555555- --6-------
E------------------------------------------------ --4-------

-------------------------------------------------------------------------------
Get this song at amazon.com      Ebay     Ringtones Ringtones  


Learn to play: Songwriting, Piano, Harmonica, Guitar
More Blink 182 lyrics available at Muzikum

Related Blink 182 Tabs

All The Small Thong tabs
Grandpa Song tabs
Feelin This tabs
Adams Song (guitar Tab) tabs
All The Small Things Live Solo tabs
Anthem Part Two tabs
Dont Leave Me (acoustic) tabs
The Country Song Solo tabs
Please Take Me Home tabs
Going Away To College tabs
The Country Song tabs
Feeling This tabs
Down tabs
Dammit Solo tabs
Hollywood tabs
Sumo Song tabs
Angellica And Me tabs
Asthenia Intro tabs
Grandpa tabs
Transvestite tabs


Guitar Tabs









All tabs are property and copyright of their owners. All tabs provided for educational purposes only. Privacy Policy, DMCA