Blink 182

Sex With His Sister Tabs



More from Blink 182

Blink 182 Tabs
Blink 182 Chords
Blink 182 Bass
Blink 182 Lyrics



Author - Artist: Blink 182
Title: Sex with his sister
Album: The Mark, Tom and Travis Show
Tabbed by: Russel 182
Email: main2040@hotmai.com


This song is located on track 38


Play this Palm Muted


E|----------------------------------------------------------------------------
B|----------------------------------------------------------------------------
G|----------------------------------------------------------------------------
D|----------------------------------------------------------------------------
A|-----------------4-4-4-4-4-4-4-4--6-6-6-6-6-6-6-6---------------------------
E|-2-2-2-2-2-2-2-2----------------------------------7-7-7-7-7-7-7-7-----------


Ending

E|----------------------------------------------------------------------------
B|----------------------------------------------------------------------------
G|----------------------------------------------------------------------------
D|--4-------------------------------------------------------------------------
A|--4-------------------------------------------------------------------------
E|--2-------------------------------------------------------------------------


Have some fun and ... PunK RocK Rules !


Get this song at amazon.com      Ebay     Ringtones Ringtones  


Learn to play: Songwriting, Piano, Harmonica, Guitar
Also available at Muzikum: Blink 182 - Sex With His Sister lyrics

Related Blink 182 Tabs

Im Kicking tabs
Whats My Age Again Live tabs
Fucked Up My Life tabs
Mutt tabs
Point Of View (Live) tabs
Time To Wake Up Intro tabs
Adams Song Live tabs
M+ms tabs
Strings tabs
Touchdown Boy Intro tabs
78 People tabs
21 Days Intro tabs
Dumpweed Intro tabs
The Longest Line tabs
Dammit Solo tabs
Blew Job tabs
Dead Mans Curve tabs
All The Small Things (live) tabs
Enthused tabs
Big Day Out tabs


Guitar Tabs









All tabs are property and copyright of their owners. All tabs provided for educational purposes only. Privacy Policy, DMCA

Online converter - videoconverter.com