Blink 182

Romeo & Rebecca Tabs



More from Blink 182

Blink 182 Tabs
Blink 182 Chords
Blink 182 Bass
Blink 182 Lyrics

Chesire Cat version

quick notes:
timing is perfect.
copied directly from tabit-credit goes to "Deeman"
www.tabit.net

Romeo and Rebecca

w/dist
E :----------------|----------------|----------------|----------------|
B :----------------|----------------|----------------|----------------|
G :----------------|----------------|----------------|----------------|
D :7---7---7-7---6-|--*-------------|7---7---7-7---6-|--*-------------|
A :----------------|--7-------------|*---------------|--7---5---5-4---|
E :----------------|----------------|----------------|--------------5-|


E :----------------|----------------|----------------|----------------|
B :----------------|----------------|----------------|----------------|
G :----------------|----------------|----------------|----------------|
D :7---7---7-7---6-|--*-------------|7---7---7-7---6-|--*-------------|
A :*---------------|--7-------------|*---------------|--7---5---5-4---|
E :----------------|----------------|----------------|--------------5-|


E :----------------|----------------|----------------|----------------|
B :----------------|----------------|----------------|----------------|
G :----------------|----------------|------6---7---6-|--6-------------|
D :6---6-7---7-6-7-|9---9-7---7-6-7-|9---9-----------|----9-9-7-6-7-6-|
A :----------------|----------------|----------------|----------------|
E :----------------|----------------|----------------|----------------|


E :----------------|----------------|----------------|----------------|
B :----------------|----------------|----------------|----------------|
G :----------------|----------------|----------------|----------------|
D :7-6---7-6---7-6-|----------------|7---7-6---------|----------------|
A :----7-----7-----|7---------------|----------7---5-|--5-4-4-5-4-----|
E :----------------|----------------|----------------|------------7-5-|

clean->
E :----------------|----------------|----------------|----------------|
B :----------------|----------------|----------------|----------------|
G :----------------|----------------|----------------|----------------|
D :----------------|----------------|----------------|----------------|
A :----7-----7---7-|----7---9-7-7---|----7---9-7-7---|----9-9-9-9-7---|
E :5-5---5-5---5---|7-7---7-------7-|9-9---9-------5-|7-7-------------|


E :----------------|----------------|----------------|----------------|
B :----------------|----------------|----------------|----------------|
G :----------------|----------------|----------------|----------------|
D :----------------|----------------|----------------|----------------|
A :----7-----7---7-|----7---9-7-7---|----7---9-7-7---|----9-9-9-9-7---|
E :5-5---5-5---5---|7-7---7-------7-|9-9---9-------5-|7-7-------------|


E :----------------|----------------|----------------|----------------|
B :----------------|----------------|----------------|----------------|
G :2-2-2-2-2-2-2-2-|*---------------|----------------|----------------|
D :2-2-2-2-2-2-2-2-|2-2-2-2-2-2-2-2-|4-4-4-4-4-4-4-4-|2-2-2-2-2-2-2-2-|
A :0-0-0-0-0-0-0-0-|2-2-2-2-2-2-2-2-|4-4-4-4-4-4-4-4-|2-2-2-2-2-2-2-2-|
E :----------------|0-0-0-0-0-0-0-0-|2-2-2-2-2-2-2-2-|0-0-0-0-0-0-0-0-|
PM-----------------------------------------------------------------

E :----------------|----------------|----------------|----------------|
B :----------------|----------------|----------------|----------------|
G :2-2-2-2-2-2-2-2-|*---------------|----------------|----------------|
D :2-2-2-2-2-2-2-2-|2-2-2-2-2-2-2-2-|4-4-4-4-4-4-4-4-|2-2-2-2-2-2-2-2-|
A :0-0-0-0-0-0-0-0-|2-2-2-2-2-2-2-2-|4-4-4-4-4-4-4-4-|2-2-2-2-2-2-2-2-|
E :----------------|0-0-0-0-0-0-0-0-|2-2-2-2-2-2-2-2-|0-0-0-0-0-0-0-0-|
PM-----------------------------------------------------------------

E :----------------|----------------|----------------|----------------|
B :----------------|----------------|----------------|----------------|
G :2-2-2-2-2-2-2-2-|----------------|----------------|----------------|
D :2-2-2-2-2-2-2-2-|2-2-2-2-2-2-2-2-|4-4-4-4-4-4-4-4-|2-2-2-2-2-2-2-2-|
A :0-0-0-0-0-0-0-0-|2-2-2-2-2-2-2-2-|4-4-4-4-4-4-4-4-|2-2-2-2-2-2-2-2-|
E :*---------------|0-0-0-0-0-0-0-0-|2-2-2-2-2-2-2-2-|0-0-0-0-0-0-0-0-|
PM-----------------------------------------------------------------
w/dist
E :----------------|----------------|----------------|----------------|
B :----------------|----------------|----------------|----------------|
G :2-2-2-2-2-2-2-2-|----------------|----------------|----------------|
D :2-2-2-2-2-2-2-2-|2-2-2-2-2-2-2-2-|4-4-4-4-4-4-4-4-|2-2-2-2-2-2-2-2-|
A :0-0-0-0-0-0-0-0-|2-2-2-2-2-2-2-2-|4-4-4-4-4-4-4-4-|2-2-2-2-2-2-2-2-|
E :*---------------|0-0-0-0-0-0-0-0-|2-2-2-2-2-2-2-2-|0-0-0-0-0-0-0-0-|
PM------------------------------------------------|

E :-------------------------------|-------------------------------|
B :-------------------------------|-------------------------------|
G :5-5-5-5-5-5-5-5-2-2-2-2-2-2-2-2|*------------------------------|
D :5-5-5-5-5-5-5-5-2-2-2-2-2-2-2-2|5-5-5-5-5-5-5-5-3-3-3-3-3-3-3-3|
A :3-3-3-3-3-3-3-3-0-0-0-0-0-0-0-0|5-5-5-5-5-5-5-5-3-3-3-3-3-3-3-3|
E :*------------------------------|3-3-3-3-3-3-3-3-1-1-1-1-1-1-1-1|


E :-------------------------------|-------------------------------|
B :-------------------------------|-------------------------------|
G :5-5-5-5-5-5-5-5-2-2-2-2-2-2-2-2|*------------------------------|
D :5-5-5-5-5-5-5-5-2-2-2-2-2-2-2-2|5-5-5-5-5-5-5-5-3-3-3-3-3-3-3-3|
A :3-3-3-3-3-3-3-3-0-0-0-0-0-0-0-0|5-5-5-5-5-5-5-5-3-3-3-3-3-3-3-3|
E :*------------------------------|3-3-3-3-3-3-3-3-1-1-1-1-1-1-1-1|


E :-----------------------------|-----------------------------|
B :-----------------------------|-----------------------------|
G :2-2-2-2-2-2-2-*--------------|-----------------------------|
D :2-2-2-2-2-2-2-2-2-2-2-2-2-2-2|4-4-4-4-4-4-4-2-2-2-2-2-2-2-2|
A :0-0-0-0-0-0-0----------------|4-4-4-4-4-4-4----------------|
E :*----------------------------|2-2-2-2-2-2-2----------------|


E :-----------------------------|-----------------------------|
B :-----------------------------|-----------------------------|
G :2-2-2-2-2-2-2-*--------------|-----------------------------|
D :2-2-2-2-2-2-2-2-2-2-2-2-2-2-2|4-4-4-4-4-4-4-2-2-2-2-2-2-2-2|
A :0-0-0-0-0-0-0----------------|4-4-4-4-4-4-4----------------|
E :*----------------------------|2-2-2-2-2-2-2----------------|


E :-----------------------------|-----------------------------|
B :-----------------------------|-----------------------------|
G :2-2-2-2-2-2-2-*--------------|-----------------------------|
D :2-2-2-2-2-2-2-2-2-2-2-2-2-2-2|4-4-4-4-4-4-4-2-2-2-2-2-2-2-2|
A :0-0-0-0-0-0-0----------------|4-4-4-4-4-4-4----------------|
E :*----------------------------|2-2-2-2-2-2-2----------------|


E :-----------------------------|-----------------------------|
B :-----------------------------|-----------------------------|
G :2-2-2-2-2-2-2-*--------------|-----------------------------|
D :2-2-2-2-2-2-2-2-2-2-2-2-2-2-2|4-4-4-4-4-4-4-2-2-2-2-2-2-2-2|
A :0-0-0-0-0-0-0----------------|4-4-4-4-4-4-4----------------|
E :*----------------------------|2-2-2-2-2-2-2----------------|


E :-------------------------------|-------------------------------|
B :-------------------------------|-------------------------------|
G :5-5-5-5-5-5-5-5-2-2-2-2-2-2-2-2|*------------------------------|
D :5-5-5-5-5-5-5-5-2-2-2-2-2-2-2-2|5-5-5-5-5-5-5-5-3-3-3-3-3-3-3-3|
A :3-3-3-3-3-3-3-3-0-0-0-0-0-0-0-0|5-5-5-5-5-5-5-5-3-3-3-3-3-3-3-3|
E :*------------------------------|3-3-3-3-3-3-3-3-1-1-1-1-1-1-1-1|


E :-------------------------------|-------------------------------|
B :-------------------------------|-------------------------------|
G :5-5-5-5-5-5-5-5-2-2-2-2-2-2-2-2|*------------------------------|
D :5-5-5-5-5-5-5-5-2-2-2-2-2-2-2-2|5-5-5-5-5-5-5-5-3-3-3-3-3-3-3-3|
A :3-3-3-3-3-3-3-3-0-0-0-0-0-0-0-0|5-5-5-5-5-5-5-5-3-3-3-3-3-3-3-3|
E :*------------------------------|3-3-3-3-3-3-3-3-1-1-1-1-1-1-1-1|


E :--------------------|---------------------|--------------------|
B :--------------------|---------------------|--------------------|
G :5-5-5-5-7-*---------|9-9-9-9-10-7-7-7-7-7-|5-5-5-5-7-*---------|
D :----------5-5-5-5-5-|---------------------|----------5-5-5-5-5-|
A :3-3-3-3-5-----------|7-7-7-7--8-5-5-5-5-5-|3-3-3-3-5-----------|
E :*---------3-3-3-3-3-|*--------------------|*---------3-3-3-3-3-|


E :---------------------|----------------|----------------|----------------|
B :---------------------|----------------|----------------|----------------|
G :9-9-9-9-10-7-7-7-7-7-|2-2-2-2-4-4-4-4-|6-6-6-6-7-7-7-7-|2-2-2-2-4-4-4-4-|
D :---------------------|2-2-2-2-4-4-4-4-|6-6-6-6-7-7-7-7-|2-2-2-2-4-4-4-4-|
A :7-7-7-7--8-5-5-5-5-5-|0-0-0-0-2-2-2-2-|4-4-4-4-5-5-5-5-|0-0-0-0-2-2-2-2-|
E :*--------------------|----------------|----------------|----------------|


E :----------------|----------------|----------------|----------------|
B :----------------|----------------|----------------|----------------|
G :6-6-6-6-7-7-7-7-|2-2-2-2-4-4-4-4-|6-6-6-6-7-7-7-7-|--------4-4-4-4-|
D :6-6-6-6-7-7-7-7-|2-2-2-2-4-4-4-4-|6-6-6-6-7-7-7-7-|7-7-7-7---------|
A :4-4-4-4-5-5-5-5-|0-0-0-0-2-2-2-2-|4-4-4-4-5-5-5-5-|--------2-2-2-2-|
E :----------------|----------------|----------------|5-5-5-5---------|


E :----------------|------------------|--------------------|------------------|
B :----------------|------------------|--------------------|------------------|
G :6-6-6-6-7-7-7-7-|--------*---------|--------------------|--------*---------|
D :----------------|7-7-7-6-2-2-2-2-2-|4-4-4-4-4-2-2-2-2-2-|7-7-7-6-2-2-2-2-2-|
A :4-4-4-4-5-5-5-5-|7-7-7-6-2-2-2-2-2-|4-4-4-4-4-2-2-2-2-2-|7-7-7-6-2-2-2-2-2-|
E :----------------|5-5-5-4-0-0-0-0-0-|2-2-2-2-2-0-0-0-0-0-|5-5-5-4-0-0-0-0-0-|


E :--------------------|----------------|----------------|
B :--------------------|----------------|---------------*|
G :--------------------|2---------------|---------------*|
D :4-4-4-4-4-2-2-2-2-2-|2---------------|---------------*|
A :4-4-4-4-4-2-2-2-2-2-|0---------------|---------------*|
E :2-2-2-2-2-0-0-0-0-0-|----------------|---------------*|
Get this song at amazon.com      Ebay     Ringtones Ringtones  


Learn to play: Songwriting, Piano, Harmonica, Guitar
More Blink 182 lyrics available at Muzikum

Related Blink 182 Tabs

Marks Boyfriend tabs
M&ms tabs
Adams Song(perfect) tabs
Enema Of The State tabs
Alone tabs
Zulu tabs
Adams Song (intro) tabs
Rich Lips tabs
Angellica & Me tabs
Obvious tabs
Everytime I Look For You tabs
What\'s My Age Again (live) tabs
All The Small Things tabs
Girl At The Rock Show tabs
Greatest Hits Bass tabs
Mms tabs
Whats My Age Again Live tabs
M+ms tabs
Sumo Song tabs
Dammit Solo tabs


Guitar Tabs









All tabs are property and copyright of their owners. All tabs provided for educational purposes only. Privacy Policy, DMCA