Blink 182

Romeo & Rebecca Bass Tabs



More from Blink 182

Blink 182 Tabs
Blink 182 Chords
Blink 182 Bass
Blink 182 Lyrics




Intro
G--------------------------|
D---2--2--4--4--6--6--7--7-|
A-00-00-22-22-44-44-55-55--|
E--------------------------|

Now this is complicated if you listen to the song then you can
hear it out
G------------------------------------|
D---2--2--2-4-2-2--2-4-2-2----4444-2-|
A-00-00-22-2---2-44-4---4-2222-------|
E------------------------------------|

Verse
G---------------------------------------|
D---------22222222-44444444-2222-4-2----|
A-00000000--------------------------4-2-|
E---------------------------------------|

Im older than you so i ....
G---------------------------|
D---------------------------|
A-22222222-44444444-2222222-|
E---------------------------|
What have you said, reach out ....
G--------------------|
D--------------------|
A-2222---------------|
E-----4444-2222-0000-|

Verse between what have you said
G--------------------|
D--------------------|
A-0000---------------|
E-----4444-2222-0000-|


G---------------------|
D---------------------|
A-2222-4----6666-4444-|
E-------2222----------|

I dont want to live alone
G---------------------|
D---------------------|
A---------------------|
E-55555-22222-00000---|

Outro
G-----------------------|
D-----------------------|
A-----------------------|
E-5555-4-0000-2222-0000-|

G----------------|
D----------------|
A----------------|
E-5--------------|



Get this song at amazon.com      Ebay     Ringtones Ringtones  


Learn to play: Songwriting, Piano, Harmonica, Guitar
More Blink 182 lyrics available at Muzikum

Related Blink 182 Bass Tabs

Carousel Buddha bass
Cacophony bass
Story Of A Lonely Guy bass
13 Miles bass
Dammit (best You'll Find) bass
Sometimes bass
Fallen Interlude bass
Wont Be Home For Christmas bass
Go bass
Going Away To College bass
Love Is Dangerous bass
Time bass
Transvestite bass
Online Song bass
Whats My Age Agian bass
Romeo & Rebecca bass
Pathetic bass
Waggy bass
Lemmings bass
Depends bass


Guitar Tabs









All tabs are property and copyright of their owners. All tabs provided for educational purposes only. Privacy Policy, DMCA