Blink 182

Rock Show (live) Tabs



More from Blink 182

Blink 182 Tabs
Blink 182 Chords
Blink 182 Bass
Blink 182 Lyrics

tabs-database.com[http://www.tabs-database.com.com/]


Song: Rock Show (Live at Pepsi Smash)

Band: Blink 182

Tabbed by:Wiki

Email:webmaster at tabs-database.com.com



This is the Pepsi Smash live version,

download the video or wav recording for it because it helps

with the timing.



This version is a lot different to the recorded one,

Im sure its all good, Email me if I made a mistake.

Also dont steal my tab and put it somewhere else.



Rate Please!!



Intro – (Distorted)

e|---------------------------------------------------------------|

B|---------------------------------------------------------------|

G|---------------------------------------------------------------|

D|-----2---0--------------------2---0-----2----------------------| x 2

A|-0-4---4---0-4-0---0------0-4---4---0-4---4p0------------------|

E|-----------------2---------------------------------------------|



Pre-Verse - (Distorted)

pm………………………………………

e|---------------------------------------------------------------|

B|---------------------------------------------------------------|

G|-2222222222222222----------------------------------------------|

D|-2222222222222222----------------------------------------------|

A|-0000000000000000----------------------------------------------|

E|---------------------------------------------------------------|



Verse One - (Distorted)

pm………………………………… pm…………… pm……………

e|---------------------------------------------------------------|

B|-5-------------------------------------------------------------|

G|-4-2-222222222222222-2-7-7777777-7-9-9999999-------------------|

D|-2-2-222222222222222—2-7-7777777-7-9-9999999-------------------|

A|---0-000000000000000-0-5-5555555-5-7-7777777-------------------|

E|---------------------------------------------------------------|



pm………………………………… pm……………

e|---------------------------------------------------------------|

B|---------------------------------------------------------------|

G|-9-2-222222222222222-2-7-7777777-7-9-9999999-------------------|

D|-9-2-222222222222222—2-7-7777777-7-9-9999999-------------------|

A|-7-0-000000000000000-0-5-5555555-5-7-7777777-------------------|

E|---------------------------------------------------------------|



Intro - (Distorted)

e|---------------------------------------------------------------|

B|---------------------------------------------------------------|

G|---------------------------------------------------------------|

D|-----2---0--------------------2---0-----2----------------------| x 2

A|-0-4---4---0-4-0---0------0-4---4---0-4---4p0------------------|

E|-----------------2---------------------------------------------|





Verse Two - (Distorted)

e|---------------------------------------------------------------|

B|---------------------------------------------------------------|

G|-2~------------------------------------------------------------|

D|-2~------------------------------------------------------------|

A|-0~---------------------------------------------------Pickslide|

E|---------------------------------------------------------------|



Chorus - (Distorted)

e|---------------------------------------------------------------|

B|---------------------------------------------------------------|

G|-------------7-7------------7-7--------------7-7---------------|

D|-7-7-7-7/4-4-7-7--7-7-7/4-4-7-7--7-7-7-7/4-4-7-7---------------|

A|-7-7-7-7/4-4-5-5--7-7-7/4-4-5-5--7-7-7-7/4-4-5-5---------------|

E|-5-5-5-5/2-2------5-5-5/4-4------5-5-5-5/2-2-------------------|



e|---------------------------------------------------------------|

B|---------------------------------------------------------------|

G|-----7~--9~--7~--9~--7-6---------------------------------------|

D|-2~--7~--9~--7~--9~--7-6---------------------------------------|

A|-2~--5~--7~--5~--7~--5-4---------------------------------------|

E|-0-------------------------------------------------------------|



Intro - (Distorted)

e|---------------------------------------------------------------|

B|---------------------------------------------------------------|

G|---------------------------------------------------------------|

D|-----2---0--------------------2---0-----2----------------------| x 2

A|-0-4---4---0-4-0---0------0-4---4---0-4---4p0------------------|

E|-----------------2---------------------------------------------|



e|---------------------------------------------------------------|

B|---------------------------------------------------------------|

G|------------------------------------------0--------------------|

D|-----2---0--------------------2---0-----0----------------------|

A|-0-4---4---0-4-0---0------0-4---4---0-4------------------------|

E|-----------------2---------------------------------------------|



Verse Three - (Distorted)

e|---------------------------------------------------------------|

B|---------------------------------------------------------------|

G|-2~------------------------------------------------------------|

D|-2~------------------------------------------------------------|

A|-0~---------------------------------------------------Pickslide|

E|---------------------------------------------------------------|



Chorus - (Distorted)

e|---------------------------------------------------------------|

B|---------------------------------------------------------------|

G|-------------7-7------------7-7--------------7-7---------------|

D|-7-7-7-7/4-4-7-7--7-7-7/4-4-7-7--7-7-7-7/4-4-7-7---------------|

A|-7-7-7-7/4-4-5-5--7-7-7/4-4-5-5--7-7-7-7/4-4-5-5---------------|

E|-5-5-5-5/2-2------5-5-5/4-4------5-5-5-5/2-2-------------------|



e|---------------------------------------------------------------|

B|---------------------------------------------------------------|

G|-----7~--9~--7~--9~--7-6---------------------------------------|

D|-2~--7~--9~--7~--9~--7-6---------------------------------------|

A|-2~--5~--7~--5~--7~--5-4---------------------------------------|

E|-0-------------------------------------------------------------|



Interlude Part One - (Distorted)

e|---------------------------------------------------------------|

B|---2---2-3----2---2-3----2---2-3----0---0----------------------|

G|-2---2------2---2------2---2------4---4---4--------------------|

D|---------------------------------------------------------------| x 2

A|---------------------------------------------------------------|

E|---------------------------------------------------------------|





Interlude Part Two – (Clean)

e|---------------------------------------------------------------|

B|---2---2-3----2---2-3----2---2-3----0---0----------------------|

G|-2---2------2---2------2---2------4---4---4--------------------|

D|---------------------------------------------------------------| x 2

A|---------------------------------------------------------------|

E|---------------------------------------------------------------|



e|---------------------------------------------------------------|

B|-0h2~-----0h2~-----0h2~-----0h2~----0h2~-------0---0-----------|

G|------2~-------2~-------2~-------2~------2~--4---4-------------|

D|---------------------------------------------------------------| x 2

A|---------------------------------------------------------------|

E|---------------------------------------------------------------|



e|---------------------------------------------------------------|

B|---------------------------------------------------------------|

G|---------------------------------------------------------------|

D|-7-7-7-7-7-7-7-7-7-7-7-7-7-7-7-7-------------------------------| x 8

A|-x-x-x-x-x-x-x-x-x-x-x-x-x-x-x-x-------------------------------|

E|-5-5-5-5-5-5-5-5-5-5-5-5-5-5-5-5-------------------------------|



e|---------------------------------------------------------------|

B|---------------------------------------------------------------|

G|---9~----------------------------------------------------------|

D|-7-9~----------------------------------------------------------|

A|-x-7~----------------------------------------------------------|

E|-5-------------------------------------------------------------|



Chorus - (Distorted)

e|---------------------------------------------------------------|

B|---------------------------------------------------------------|

G|-------------7-7------------7-7--------------7-7---------------|

D|-7-7-7-7/4-4-7-7--7-7-7/4-4-7-7--7-7-7-7/4-4-7-7---------------|

A|-7-7-7-7/4-4-5-5--7-7-7/4-4-5-5--7-7-7-7/4-4-5-5---------------|

E|-5-5-5-5/2-2------5-5-5/4-4------5-5-5-5/2-2-------------------|



e|---------------------------------------------------------------|

B|---------------------------------------------------------------|

G|-----7~--9~--7~--9~--7-6---------------------------------------|

D|-2~--7~--9~--7~--9~--7-6---------------------------------------|

A|-2~--5~--7~--5~--7~--5-4---------------------------------------|

E|-0-------------------------------------------------------------|



Outro - (Distorted)



e|---------------------------------------------------------------|

B|---------------------------------------------------------------|

G|---------------------------------------------------------------|

D|-----2---0-----------------2---0-----2p0-----------------------|

A|-0-4---4---0-4-0---0---0-4---4---0h4---------------------------|

E|-----------------2---------------------------------------------|



e|---------------------------------------------------------------|

B|---------------------------------------------------------------|

G|-0-------------------------------------------------------------|

D|---2-0----------------2---0-----2------------------------------| x 2

A|-------4-0---0----0-4---4---0-4---4p0--------------------------|

E|-----------2---------------------------------------------------|



e|---------------------------------------------------------------|

B|---------------------------------------------------------------|

G|-2~------------------------------------------------------------|

D|-2~------------------------------------------------------------| Let this note ring

A|-0~------------------------------------------------------------|

E|---------------------------------------------------------------|
Added by tabs-database.com and our distinguished partners
Get this song at amazon.com      Ebay     Ringtones Ringtones  


Learn to play: Songwriting, Piano, Harmonica, Guitar
Also available at Muzikum: Blink 182 - Rock Show Live lyrics

Related Blink 182 Tabs

Alians Exist tabs
Marks Boyfriend tabs
B J tabs
Angellica And Me tabs
Cacophony tabs
Adam\'s Song tabs
Wrecked Him tabs
Alone Intro tabs
Dammit (growing Up) tabs
Rich Lips tabs
Anthem Pt Ii tabs
Does My Breath Smell tabs
Transvestite tabs
Time tabs
Dammit Solo tabs
Dysentery Gary tabs
Dont Leave Me tabs
Waggy tabs
The Country Song Solo tabs
M&ms tabs


Guitar Tabs









All tabs are property and copyright of their owners. All tabs provided for educational purposes only. Privacy Policy, DMCA

Online converter - videoconverter.com