Blink 182

Reckless Abandon Tabs



More from Blink 182

Blink 182 Tabs
Blink 182 Chords
Blink 182 Bass
Blink 182 Lyrics

+ BLINK 182---------------------| RECKLESS ABANDON


**INTRO**
E---------------------------------------------------
B---------------------------------------------------
G-4-4-4-4-------------------------------------------
D-----------2-2-2-2---6-6-6-6---4-4-4-4---2-2-2-2---
A-2-2-2-2---2-2-2-2---6-6-6-6---4-4-4-4---2-2-2-2---
E-----------0-0-0-0---4-4-4-4---2-2-2-2---0-0-0-0---
(B) (E) (G#) (F#) (E)

On and on..........Reckless abandon
Somethings wrong...This is gonna shock them
Nothing to.........Hold On to
We use this song...To lead you on........


**CLASS RIFF**
E--------------|---------------|----------------|--------------------
B--------------|---------------|----------------|--------------------
G--------------|---------------|----------------|--------------------
D--1----4---2--|--1-----4---2--|-1------4---2---|--1-----1--2--------(x2)
A----2---------|-----2---------|----2-----------|-----2---------4----
E--------------|---------------|----------------|--------------------


****VERSE****
E------------------------------------------------
B------------------------------------------------
G---4-4-4-4-4-4-4-4------------------------------
D---4-4-4-4-4-4-4-4----4-4-4-4-4-4-4-4-----------(x2)
A---2-2-2-2-2-2-2-2----4-4-4-4-4-4-4-4-----------
E----------------------2-2-2-2-2-2-2-2-----------
(B) (F#)

[1] I learned a lot today
Not sure If Ill get laid
Not sure If Ill fail or pass
Kissed every girl in class

Everybody would waste it all
To have a summer that they could call
A memory thats full of fun
***ed up but its all done


[2] Sip a drink of the alcohol
End up kneeling in bathroom stalls
Eyes are red and my movements slow
Too high Got vertigo

He took a *** in the bathroom tub
And fed the dog the brownie drugs
Tried hard to not get caught
He ***ed a chick in the parking lot


[3] Break a window and bust a wall
Making fun of your friends mom
Turn the music up way too loud
Charge a pizza to the house

Everybody would waste it all
To have a summer that they could call
A memorie thats full of fun
***ed up but its all done


***CHORUS***
E--------------------------------------------------|------------------------
B--------------------------------------------------|------------------------
G-4-4-4-4------------------------------------------|------------------------
D-4-4-4-4---2-2-2-2---6-6-6-6---4-4-4-4---2-2-2-2--|-6-6-6-6---4-4-4-4---2--
A-2-2-2-2---2-2-2-2---6-6-6-6---4-4-4-4---2-2-2-2--|-6-6-6-6---4-4-4-4---2--
E-----------0-0-0-0---4-4-4-4---2-2-2-2---0-0-0-0--|-4-4-4-4---2-2-2-2---0--
(B) (E) (G#) (F#) (E) (G#) (F#) (E)

On and on.............Reckless abandon
Somethings wrong......This is gonna shock them
Nothing to............Hold On to
We use this song......To lead you on........
And break the truth...With more bad news
We left a scar size extra large




***BRIDGE***
E--------------------------------------------------
B--------------------------------------------------
G---4----------------------------------------------
D---4----2------6-----4----------------------------(x4)
A---2----2------6-----4----------------------------
E--------0------4-----2--------------------------
Get this song at amazon.com      Ebay     Ringtones Ringtones  


Learn to play: Songwriting, Piano, Harmonica, Guitar
Also available at Muzikum: Blink 182 - Reckless Abandon lyrics

Related Blink 182 Tabs

Touchdown Boy Intro-easy tabs
Fuk A Dog In The Ass tabs
Anthem Part 2 tabs
Cheshire Cat Album tabs
Online Songs tabs
Tv tabs
Go tabs
Dead Mans Cure tabs
Down tabs
What Went Wrong Acoustic tabs
Dysentary Gary tabs
I Know A Guy tabs
The Rock Show tabs
Rollercoaster tabs
Aliens Exist tabs
Sex With Grandpa tabs
Mark Tom And Travis Show tabs
Alone tabs
A New Hope Intro tabs
Josie Live tabs


Guitar Tabs









All tabs are property and copyright of their owners. All tabs provided for educational purposes only. Privacy Policy, DMCA