Blink 182

Reckless Abandon Bass Tabs



More from Blink 182

Blink 182 Tabs
Blink 182 Chords
Blink 182 Bass
Blink 182 Lyrics

Riff 1 x4

G|-------------------------------------
D|-------------------------------------
A|-22222222----------------------------
E|----------00000000-44444444-22222222-

Riff 2 x1

G|-------------------------------------
D|-------------------------------------
A|-2222222222222222-------------------
E|-------------------2222222222222222-

Riff 3 x1

G|-------------------------------------
D|-------------------------------------
A|-2222222222222222-------------------
E|-------------------22222222-2---2----

Riff 4 x1   play the 2 on the A longer than the 2 on the E

G|-------------------------------------
D|--------------2-2-2-2-4--------------
A|-2-2-2-2-4-----2-2-2-----------------
E|--2-2-2------------------------------

Riff 5 x1

G|-------------------------------------
D|-------------------------------------
A|-------------------77777777-77777777-
E|-44444444-22222222-------------------

Riff 6 x1

G|---------------------
D|---------------------
A|-------------------7-
E|-44444444-22222222---

Riff 1 x4
Riff 2 x1
Riff 3 x1
Riff 4 x1
Riff 5 x1
Riff 6 x1

Riff 7 x4

G|-------------------------------------
D|-------------------------------------
A|-2-----------------------------------
E|----------0--------4--------2--------

Break
Riff 4 x1
Riff 5 x1
Riff 6 x1
Get this song at amazon.com      Ebay     Ringtones Ringtones  


Learn to play: Songwriting, Piano, Harmonica, Guitar
Also available at Muzikum: Blink 182 - Reckless Abandon lyrics

Related Blink 182 Bass Tabs

Carousel bass
Anthem part 21 bass
Heres Your Letter bass
Carousel (full Length) bass
Family Reunion (clean:p) bass
What\'s My Age Again bass
Emo bass
Im Sorry bass
Mutt bass
Degenerate bass
All The Small Things(corrected) bass
Action(feeling This) bass
21 Days bass
Anthem bass
Blew Job bass
My Pet Sally bass
Roller Coaster bass
Happy Holidays, You Basterd bass
The Fallen Interlude bass
Adams Song bass


Guitar Tabs









All tabs are property and copyright of their owners. All tabs provided for educational purposes only. Privacy Policy, DMCA