Blink 182

Please Take Me Home Bass Tabs



More from Blink 182

Blink 182 Tabs
Blink 182 Chords
Blink 182 Bass
Blink 182 Lyrics




Intro
G:------------------------------------
D:------------------------------------
A:-22222222-44444444------------------ x4
E:-------------------44444444-00000000

Interlude
G:-----------------------------------------------------
D:-----------------------------------------------------
A:-------2-2--------------------------------11111111--- x1
E:-0-0---------4-4---2-2---0000000000000000----------2~

Chorus
G:------------------------------------
D:------------------------------------
A:-22222222-11111111------------------ x1
E:-------------------44444444-00000000

G:------------------------------
D:------------------------------
A:-22222222-11111111------------ x1
E:-------------------44444444-0~

Verse
G:------------------------------------
D:------------------------------------
A:-22222222-44444444------------------ x4
E:-------------------44444444-00000000

Interlude
G:-----------------------------------------------------
D:-----------------------------------------------------
A:-------2-2--------------------------------11111111--- x1
E:-0-0---------4-4---2-2---0000000000000000----------2~

Chorus
G:------------------------------------
D:------------------------------------
A:-22222222-11111111------------------ x3
E:-------------------44444444-00000000

G:------------------------------
D:------------------------------
A:-22222222-11111111------------ x1
E:-------------------44444444-0~

Bridge
G:--------------------------------------
D:--------------------------------------
A:-22---22---22---22---22---22---22---22 x1
E:--------------------------------------

G:------------------------------------
D:------------------------------------
A:-22222222-44444444-55555555-66666666 x2
E:------------------------------------

G:------------------------------------
D:------------------------------------
A:-22222222-44444444------------------ x2
E:-------------------44444444-00000000

G:------------------------------------
D:------------------------------------
A:-22222222-11111111------------------ x2
E:-------------------44444444-00000000

G:-----------------
D:-----------------
A:----------------- x1
E:-2222222222222222

Chorus
G:------------------------------------
D:------------------------------------
A:-22222222-11111111------------------ x3
E:-------------------44444444-00000000

G:---------------------------
D:---------------------------
A:-22222222-11111111--------- x1
E:-------------------44444444

Outro
G:---------------------------
D:---------------------------
A:--------------------------- x1
E:-0-------------------------



Get this song at amazon.com      Ebay     Ringtones Ringtones  


Learn to play: Songwriting, Piano, Harmonica, Guitar
Also available at Muzikum: Blink 182 - Please Take Me Home lyrics

Related Blink 182 Bass Tabs

First Date W/ Lyrics bass
I Miss You (new Complete Version) bass
The Rockshow bass
This Song That Sucks bass
Dont bass
Aliens Exist bass
Dumpweed bass
Good Times bass
First Date (live) bass
Does My Breath Smell bass
All Of This bass
Please Take Me Home bass
Staytoghetherforthekids-noobsver bass
Adams Song bass
Blowjob Song bass
Satan Tune bass
Story Of A Lonely Guy bass
Stay Together For The Kids (with Optional Second Verse) bass
Fentoozler bass
What Went Wrong (tabbed For Bass) bass


Guitar Tabs









All tabs are property and copyright of their owners. All tabs provided for educational purposes only. Privacy Policy, DMCA