Blink 182

Peggy Sue Live Tabs



More from Blink 182

Blink 182 Tabs
Blink 182 Chords
Blink 182 Bass
Blink 182 Lyrics



Song: Peggy Sue Live
Band: Blink 182
Album: The Mark, Tom and Travis Show

Tabbed by: Hinzey777 (Hinzey_guitarist_182@hotmail.com)

x = Mute String
~ = Let ring
h = hammer
p.m ..... = Palm Mute

Please rate

Intro
e:-----------------------------------------------------------------------------
B:-----------------------------------------------------------------------------
G:-6-6-9-6--6--6-9-6-6-9--6—6--7-7-7--7-7-7-7--6-6-9-6--6--------------6-6-9-6-
D:-7-7-7-7--7--7-7-7-7-7--7—7--7-7-7--7-7-7-7--7-7-7-7--7--9-9-9-7-7-7-7-7-7-7-
A:---------------------------------------------------------7-7-7-5-5-5---------
E:-----------------------------------------------------------------------------


Verse
e:--------------------------------------------------------------------
B:--------------------------------------------------------------------
G:---------------------7-777777---------------------------------------
D:-7-777777--4-444444--7-777777--2-4-2-------------------------------- x4
A:-7-777777--4-444444--5-555555--2-4-2--------------------------------
E:-5-555555--2-222222------------0-2-0--------------------------------
p.m ...... ...... ......

Chorus
e:-------------------------------------------------------------------
B:-------------------------------------------------------------------
G:-7777777777--------------7777777777--------99999-------------------
D:-7777777777--7777777777--xxxxxxxxxx--77777-99999-------------------
A:-5555555555--7777777777--5555555555--77777-77777-------------------
E:-------------5555555555--------------55555-------------------------

e:-------------------------------------------------------------------
B:-------------------------------------------------------------------
G:-7777777777--------------7777777777--------9-9999------------------
D:-7777777777--7777777777--xxxxxxxxxx--77777-9-9999------------------
A:-5555555555--7777777777--5555555555--77777-7-7777------------------
E:-------------5555555555--------------55555-------------------------
p.m ....

e:-----------------------------------------------------------------------------
B:-----------------------------------------------------------------------------
G:-6-6-9-6--6--6-9-6-6-9--6—6--7-7-7--7-7-7-7--6-6-9-6--6--------------6-6-9-6-
D:-7-7-7-7--7--7-7-7-7-7--7—7--7-7-7--7-7-7-7--7-7-7-7--7--9-9-9-7-7-7-7-7-7-7-
A:---------------------------------------------------------7-7-7-5-5-5---------
E:-----------------------------------------------------------------------------

Verse
e:--------------------------------------------------------------------
B:--------------------------------------------------------------------
G:---------------------7-777777---------------------------------------
D:-7-777777--4-444444--7-777777--2-4-2-------------------------------- x4
A:-7-777777--4-444444--5-555555--2-4-2--------------------------------
E:-5-555555--2-222222------------0-2-0--------------------------------
p.m ...... ...... ......

Chorus
e:-------------------------------------------------------------------
B:-------------------------------------------------------------------
G:-7777777777--------------7777777777--------99999-------------------
D:-7777777777--7777777777--xxxxxxxxxx--77777-99999------------------- x2
A:-5555555555--7777777777--5555555555--77777-77777-------------------
E:-------------5555555555--------------55555-------------------------


Solo 1
e:-------------------------------
B:-------------------------------
G:-------------------------------
D:--7-6h7-7---7--6h7-9-----------
A:-0-----0-0-0-0-----------------
E:-------------------------------

Solo 2
E:-5---4---4h5----5--4h5-7-------
B:--55--55-----55--5-------------
G:-------------------------------
D:-------------------------------
A:-------------------------------
E:-------------------------------

Bridge
e:--------------------------------------------------
B:--------------------------------------------------
G:-6-7-9-6-7-9-9-9-9-7-7-7--------------------------
D:-7-7-7-7-7-7-7-7-7-7-7-7--------------------------
A:--------------------------------------------------
E:--------------------------------------------------

Chorus
e:-------------------------------------------------------------------
B:-------------------------------------------------------------------
G:-7777777777--------------7777777777--------99999-------------------
D:-7777777777--7777777777--xxxxxxxxxx--77777-99999------------------- x2
A:-5555555555--7777777777--5555555555--77777-77777-------------------
E:-------------5555555555--------------55555-------------------------

End on
e:---------
B:---------
G:---------
D:---7~~---
A:---7~~---
E:---5~~---


Get this song at amazon.com      Ebay     Ringtones Ringtones  


Learn to play: Songwriting, Piano, Harmonica, Guitar
Also available at Muzikum: Blink 182 - Peggy Sue Live lyrics

Related Blink 182 Tabs

Touchdown Boy Intro tabs
I Wont Be Home For Christmas Intro tabs
Anthem tabs
All Of This tabs
Does My Breath Smell tabs
I'm Gay tabs
Feeling This tabs
B J tabs
M And Ms tabs
The Country Song tabs
Story Of A Lonley Guy tabs
What\'s My Age Again (live) tabs
Zulu tabs
Don't Tell Me That Its Over tabs
Enema Of The State Album tabs
I Wont Be Home For Christmas tabs
Adams Song Intro 3 tabs
Josie Live tabs
Sex With Grandpa tabs
Adams Song Live3 tabs


Guitar Tabs









All tabs are property and copyright of their owners. All tabs provided for educational purposes only. Privacy Policy, DMCA