Blink 182

Pathetic Tabs



More from Blink 182

Blink 182 Tabs
Blink 182 Chords
Blink 182 Bass
Blink 182 Lyrics

BLINK 182 



Pathetic

Standard Tuning







Intro: 3.5x

e----------------------------------------------------

b---5-7-0-0-0-0-5-7-0-0-0-0-5-7-0-0-0-0-4-0-4-0-4----

g----------------------------------------------------

d----------------------------------------------------

a----------------------------------------------------

e----------------------------------------------------



verse 4x - I know i'm pathetic i knew when she said it....

x2

e------------------|-------------------------

b------------------|-------------------------

g------------------|-11-11-11-11----9-9-9-9--

d--9-9-9-9-9-9-9-9-|-11-11-11-11----9-9-9-9--

a--9-9-9-9-9-9-9-9-|--9--9--9--9----7-7-7-7--

e--7-7-7-7-7-7-7-7-|-------------------------



Chorus: 2x - Dont hold me down this is where i belong....

x4

----------------------------------|------------------------|

----------------------------------|------------------------|

---------------4---------------4--|-----------------------|

--6-6-6-6-6-6--4--4-4-4-4-4-4--4--|-2-2-2-2-2-2-2---------|

--6-6-6-6-6-6--2--4-4-4-4-4-4--2--|-2-2-2-2-2-2-2---------|

--4-4-4-4-4-4-----2-2-2-2-2-2-----|-0-0-0-0-0-0-0---------|



chorus #2 2x x4

----------------------------------|-----------------------|

----------------------------------|-----------------------|

---------------4---------------4--|-----------------------|

--6-6-6-6-6-6--4--4-4-4-4-4-4--4--|2-2-2-2-2-2-2----------|

--6-6-6-6-6-6--2--4-4-4-4-4-4--2--|2-2-2-2-2-2-2----------|

--4-4-4-4-4-4-----2-2-2-2-2-2-----|0-0-0-0-0-0-0----------|

........... ...........



final chords

e-------------

b-------------

g--4-4-4------

d--4-4-4------

a--2-2-2------

e-------------



Song Order

intro

verse

chorus

intro

verse(palm mute 1st 16 notes on the 1st time you play it)

chorus#2

intro(x4 instead of 3.5)

chorus

final chords

Get this song at amazon.com      Ebay     Ringtones Ringtones  


Learn to play: Songwriting, Piano, Harmonica, Guitar
Also available at Muzikum: Blink 182 - Pathetic lyrics

Related Blink 182 Tabs

Dont Leave Me (acoustic) tabs
Dont Tell Me Its Over tabs
Anthem tabs
Fentoozler tabs
Palmadillo tabs
Im Lost Without You tabs
Anthem Part Two tabs
Untitled tabs
Story Of A Lonely Guy tabs
I Miss You Live tabs
Cereal tabs
Carousel Live tabs
Adam S Song With Complete Interlude tabs
The Album Tabs tabs
Dicklips tabs
Country Song tabs
I Wont Be Home For Christmas tabs
Fck A Dog tabs
What\'s My Age Again tabs
M&ms tabs


Guitar Tabs









All tabs are property and copyright of their owners. All tabs provided for educational purposes only. Privacy Policy, DMCA