Blink 182

Obvious Tabs



More from Blink 182

Blink 182 Tabs
Blink 182 Chords
Blink 182 Bass
Blink 182 Lyrics

Band: Blink 182
Album: Self-titled
Song: Obvious
Tuning: Dropped D
Guitarist: Tom Delonge
Tabber: Nick C.

Legend:
~ = Let Ring
] = Do not let ring

*THIS SONG IS PLAYED IN DROPPED D TUNING*
INTRO
E|----------------------|
B|----------------------|
G|----------------------|
D|--7--7--7-2--2-2--2]--|
A|--5--5--5-2--2-2--2]--|
E|--0--0--0-2--2-2--2]--|

VERSE
E|-----|
B|-----|
G|-----|
D|-----|
A|--5~-|
E|--0~-|

CHORUS
E|-------------------------------------------|
B|-------------------------------------------|
G|-------------------------------------------|
D|-------------------------------------------|
A|-------------------------------------------|
E|--2-(x16)--6-6-6-4-4-4-7-7-7-0-0-0-1-1-1-1-|

INTERLUDE
E|-----------------------------------------|
B|-----------------------------------------|
G|--9-9-9-------6-6-6-10-10-10--9-9-10-10--|
D|--x-x-x-------x-x-x--x--x--x--x-x--x--x--|
A|--7-7-7-7-7-7-4-4-4--8--8--8--7-7--8--8--|
E|--------7-7-7----------------------------|

INTERLUDE PART 2
E|------------------------------------|
B|------------------------------------|
G|--9-9-9-----------------------------|
D|--9-9-9--7-7-7-0-0-0-3-3-3-2-2-3-3--|
A|--7-7-7--7-7-7-0-0-0-3-3-3-2-2-3-3--|
E|---------7-7-7-0-0-0-3-3-3-2-2-3-3--|

END CHORUS
E|-----------------------------------|
B|-----------------------------------|
G|--9------8------9------8-----------|
D|--9-x16--8-x16--9-X16--8-X8--7-----|
A|--7------6------7------6-----7-X8--|
E|-----------------------------7-----|

END CHORD
E|-----|
B|-----|
G|-----|
D|--7~-|
A|--5~-|
E|--0~-|

ORDER:

INTRO
VERSE
CHORUS
INTRO
VERSE
CHORUS
INTERLUDE
INTERLUDE 2
END CHORUS
END CHORD
Get this song at amazon.com      Ebay     Ringtones Ringtones  


Learn to play: Songwriting, Piano, Harmonica, Guitar
Also available at Muzikum: Blink 182 - Obvious lyrics

Related Blink 182 Tabs

Pathetic tabs
All Of This tabs
First Day tabs
Adams Song Intro2 tabs
Man Overboard (intro) tabs
M&ms tabs
Easy Target tabs
Dammit(done Right) tabs
Im Kicking tabs
Touchdown Boy Intro tabs
M&m's tabs
21 Days Intro tabs
Everytime I Look For You tabs
Dead Mans Cure tabs
Feeling This Live tabs
Asthenia Intro tabs
Apple Shampoo tabs
Blink 182 tabs
What\'s My Age Again (live) tabs
Dick Lips tabs


Guitar Tabs









All tabs are property and copyright of their owners. All tabs provided for educational purposes only. Privacy Policy, DMCA

Online converter - videoconverter.com