Blink 182

Obvious Bass Tabs



More from Blink 182

Blink 182 Tabs
Blink 182 Chords
Blink 182 Bass
Blink 182 Lyrics




E --------------------------------------------------------------------------------
B --------------------------------------------------------------------------------
F# ----------3--3--3-------------3--3--3-------------3--3--3-------------3--3--3---
C# --0--0--0-------------0--0--0-------------0--0--0-------------0--0--0-----------


-----------------------------------------------------------------
----------------------------------------------------------------- x2
--------------------------------3-3-3-3-3-3-3-3-3-3-3-3-3-3-3-3--
-0-0-0-0-0-0-0-0-0-0-0-0-0-0-0-0---------------------------------

-----------------------------------------------------------------
----------------------------------------------------------------- x2
---------------------------------2-2-2-0-0-0-3-3-3---------------
-3-3-3-3-3-3-3-3-3-3-3-3-3-3-3-3-------------------0-0-0-2-2-2-2-

----------------------------------------------------------
----------------------------------------------------------
--------3--3--3-------------3--3--3-------------3--3--3---
---0--0-------------0--0--0-------------0--0--0-----------

-----------------------------------------------------------------
----------------------------------------------------------------- x2
--------------------------------3-3-3-3-3-3-3-3-3-3-3-3-3-3-3-3--
-0-0-0-0-0-0-0-0-0-0-0-0-0-0-0-0---------------------------------

-----------------------------------------------------------------
----------------------------------------------------------------- x4
---------------------------------2-2-2-0-0-0-3-3-3---------------
-3-3-3-3-3-3-3-3-3-3-3-3-3-3-3-3-------------------0-0-0-2-2-2-2-

-------------------6-6-6-5-5-6-6-
-------------2-2-2--------------- x4
-------3-3-3---------------------
-3-3-3---------------------------

-----------------------------------------------------------------
-----------------------------------------------------------------
-----------------------------------------------------------------
-3-3-3-3-3-3-3-3-3-3-3-3-3-3-3-3-2-2-2-2-2-2-2-2-2-2-2-2-2-2-2-2-

-----------------------------------------------------------------
-----------------------------------------------------------------
-------------------------------------------------3-3-3-3-3-3-3-3-
-3-3-3-3-3-3-3-3-3-3-3-3-3-3-3-3-2-2-2-2-2-2-2-2-----------------

-----------------------------------------------------------------
-----------------------------------------------------------------
-----------------------------------------------------------------
-3-3-3-3-3-3-3-3-3-3-3-3-3-3-3-3-2-2-2-2-2-2-2-2-2-2-2-2-2-2-2-2-

-----------------------------------------------------------------
-----------------------------------------------------------------
-------------------------------------------------3-3-3-3-3-3-3-3-
-3-3-3-3-3-3-3-3-3-3-3-3-3-3-3-3-2-2-2-2-2-2-2-2-----------------



Get this song at amazon.com      Ebay     Ringtones Ringtones  


Learn to play: Songwriting, Piano, Harmonica, Guitar
Also available at Muzikum: Blink 182 - Obvious lyrics

Related Blink 182 Bass Tabs

Blowjob Song bass
Cheshire Cat bass
The Girl Next Door bass
Carousel (bridge) bass
The Rockshow bass
Anthem part 21 bass
Going Away To College bass
Dumpweed bass
Snake Charmer bass
Im Lost Without You bass
Family Reunion(live) bass
Untitled bass
Anthem Part Two bass
Chesire Cat bass
A New Hope bass
Adams Song (correct) bass
Please Take Me Home bass
First Date W/ Lyrics bass
Voyer bass
Damnit W/intro bass


Guitar Tabs









All tabs are property and copyright of their owners. All tabs provided for educational purposes only. Privacy Policy, DMCA