Blink 182

Not Now Tabs



More from Blink 182

Blink 182 Tabs
Blink 182 Chords
Blink 182 Bass
Blink 182 Lyrics

tabs-database.com[http://www.tabs-database.com.com/]
This tab I think is almost perfect but feel free to make corrections



Tuning E A D G B e





Intro play 4 times

e|----------------------------------

B|----------------------------------

G|-11-11-11-7-7-7777-7-7-9-11-7-9-11

D|----------------------------------

A|-9--9--9--5-5-5555-5-5-7-9--5-7-9-

E|----------------------------------



Main riff play 4 times

e|-----------------------------------

B|-----------------------------------

G|-------777---------------------------

D|-999-777-77777777-55555555-44444444

A|-999-555-77777777-55555555-55555555

E|-777-------55555555-33333333-22222222



Verse play 2 times

e|---------------- |----------------

B|---------------- |----------------

G|---------------- |----------------

D|-7---7---------- |-7---7---4---4--

A|-5-7-5-7-5-7-5-7 |-5-7-5-7-5-7-5-5

E|--- 5---5-7-5-7-5 |- 5---5---5---5



Chorus

e|----------------------------------

B|----------------------------------

G|-77777777-77777777-77777777-7777--

D|-00000000-00000000-00000000-0000-5

A|-55555555-44444444-55555555-0000-5

E|-55555555-77777777-5555-3---------



main riff x2

Verse

Chorus

e|-------------------------------------

B|-------------------------------------

G|-77777777-77777777-77777777-77777777-

D|-00000000-00000000-00000000-00000000-

A|-55555555-44444444-55555555-00000000-

E|-55555555-77777777-55555555---------



e|-----------------------------------

B|-----------------------------------

G|-77777777-77777777-77777777-7777---

D|-00000000-00000000-00000000-0000-5~

A|-55555555-44444444-55555555-0000-5~

E|-55555555-77777777-5555-3----------



Bass solo



Intro



Chorus x4

And that’s it have fun
Added by tabs-database.com and our distinguished partners
Get this song at amazon.com      Ebay     Ringtones Ringtones  


Learn to play: Songwriting, Piano, Harmonica, Guitar
Also available at Muzikum: Blink 182 - Not now lyrics

Related Blink 182 Tabs

Life Is So Boring tabs
M&ms tabs
Adams Song Live2 tabs
A Dog tabs
Dancing With Myself tabs
I Wont Be Home For Christmas tabs
Fucked Up My Life tabs
Action tabs
Sex With His Sister tabs
Dead Mans Cure tabs
Grampa Is An Asshole tabs
Degenerate tabs
Adams Song Complete tabs
My Pet Sally tabs
The Album Tabs tabs
Aliens Exist tabs
Fuk A Dog In The Ass tabs
Dude Ranch tabs
A New Hope tabs
Adams Song tabs


Guitar Tabs









All tabs are property and copyright of their owners. All tabs provided for educational purposes only. Privacy Policy, DMCA