Blink 182

Not Now 100% Correct Bass Tabs



More from Blink 182

Blink 182 Tabs
Blink 182 Chords
Blink 182 Bass
Blink 182 Lyrics




Intro
start the drums and guitar
----------------------------------------------------------------
----------------------------------------------------------------
-2-2-2-5-5------------------------------------------------------
-----------5-5-5-5-5-5-5-3-3-3-3-3-3-2-2-2-2--------------------


----------------------------------------------------------------
----------------------------------------------------------------
-2-2-2-5-5------------------------------------------------------
-----------5-5-5-5-5-5-5-3-3-3-3-3-3-2-2-2-2--------------------


----------------------------------------------------------------
----------------------------------------------------------------
-2-2-2-5-5------------------------------------------------------
-----------5-5-5-5-5-5-5-3-3-3-3-3-3-2-2-2-2--------------------


----------------------------------------------------------------
----------------------------------------------------------------
-2-2-2-5-5------------------------------------------------------
-----------5-5-5-5-5-5-5-3-3-3-3-3-3-2-2-2-2--------------------

chorus 1
Wait the verse and drums
------------------------------------------------------------------------------------
------------------------------------------------------------------------------------
-4--4-4-4-4-4-4-4-4-6--6-6-6-6-6-6-6-8--8-8-8-8-8-8-8--10--10-10-10-10-10-10--------
------------------------------------------------------------------------------------


------------------------------------------------------------------------------------
------------------------------------------------------------------------------------
-4--4-4-4-4-4-4-4-4-6--6-6-6-6-6-6-6-8--8-8-8-8-8-8-8--10--10-10-10-10-10-10--------
------------------------------------------------------------------------------------

chorus 2
------------------------------------------------------------------------------------
------------------------------------------------------------------------------------
-5-5-5-5-5-5-5-5-5-5-7-0-0-0-0-0-0-0-0-0-0-5-2-2-2-2-2-2-2-2-2-2-5-0-0-0-0-7--------
------------------------------------------------------------------------------------


----------------------------------------------------------------
----------------------------------------------------------------
-2-2-2-5-5------------------------------------------------------
-----------5-5-5-5-5-5-5-3-3-3-3-3-3-2-2-2-2--------------------


----------------------------------------------------------------
----------------------------------------------------------------
-2-2-2-5-5------------------------------------------------------
-----------5-5-5-5-5-5-5-3-3-3-3-3-3-2-2-2-2--------------------

Chorus 2
Wait the verse and drums
-----------------------------------------------------------------------------------------
-----------------------------------------------------------------------------------------
-5-5-5-5-5-5-5-5-5-5-7-0-0-0-0-0-0-0-0-0-0-5-2-2-2-2-2-2-2-2-2-2-5-0-0-0-0--8-8-8-8-8-6-6
-----------------------------------------------------------------------------------------


-----------------------------------------------------------------------------------------
-----------------------------------------------------------------------------------------
-5-5-5-5-5-5-5-5-5-5-7-0-0-0-0-0-0-0-0-0-0-5-2-2-2-2-2-2-2-2-2-2-5-0-0-0-0--8-8-8-8-8-6-6
-----------------------------------------------------------------------------------------


----------------------------------------------------------------
----------------------------------------------------------------
-2-2-2-5-5------------------------------------------------------
-----------5-5-5-5-5-5-5-3-3-3-3-3-3-2-2-2-2--------------------


----------------------------------------------------------------
----------------------------------------------------------------
-2-2-2-5-5------------------------------------------------------
-----------5-5-5-5-5-5-5-3-3-3-3-3-3-2-2-2-2--------------------

Verse
------------------------------------------------------------------------------------
------------------------------------------------------------------------------------
-5-5-5-5-5-5-5-5-5-5-7-0-0-0-0-0-0-0-0-0-0-5-2-2-2-2-2-2-2-2-2-2-5-0-0-0-0-7--------
------------------------------------------------------------------------------------


------------------------------------------------------------------------------------
------------------------------------------------------------------------------------
-5-5-5-5-5-5-5-5-5-5-7-0-0-0-0-0-0-0-0-0-0-5-2-2-2-2-2-2-2-2-2-2-5-0-0-0-0-7--------
------------------------------------------------------------------------------------


------------------------------------------------------------------------------------
------------------------------------------------------------------------------------
-5-5-5-5-5-5-5-5-5-5-7-0-0-0-0-0-0-0-0-0-0-5-2-2-2-2-2-2-2-2-2-2-5-0-0-0-0-7--------
------------------------------------------------------------------------------------

chorus 3
-----------------------------------------------------------------------------------------
-----------------------------------------------------------------------------------------
-5-5-5-5-5-5-5-5-5-5-7-0-0-0-0-0-0-0-0-0-0-5-2-2-2-2-2-2-2-2-2-2-5-0-0-0-0--8-8-8-8-8-6-6
-----------------------------------------------------------------------------------------


-----------------------------------------------------------------------------------------
-----------------------------------------------------------------------------------------
-5-5-5-5-5-5-5-5-5-5-7-0-0-0-0-0-0-0-0-0-0-5-2-2-2-2-2-2-2-2-2-2-5-0-0-0-0--8-8-8-8-8-6-6
-----------------------------------------------------------------------------------------


----------------------------------------------------------------
----------------------------------------------------------------
-2-2-2-5-5------------------------------------------------------
-----------5-5-5-5-5-5-5-3-3-3-3-3-3-2-2-2-2--------------------


----------------------------------------------------------------
----------------------------------------------------------------
-2-2-2-5-5------------------------------------------------------
-----------5-5-5-5-5-5-5-3-3-3-3-3-3-2-2-2-2--------------------


----------------------------------------------------------------
----------------------------------------------------------------
-2-2-2-5-5------------------------------------------------------
-----------5-5-5-5-5-5-5-3-3-3-3-3-3-2-2-2-2--------------------


----------------------------------------------------------------
----------------------------------------------------------------
-2-2-2-5-5------------------------------------------------------
-----------5-5-5-5-5-5-5-3-3-3-3-3-3-2-2-2-2--------------------


----------------------------------------------------------------
----------------------------------------------------------------
-2----5---------------------------------------------------------
------------5---------------------------------------------------



Get this song at amazon.com      Ebay     Ringtones Ringtones  


Learn to play: Songwriting, Piano, Harmonica, Guitar
More Blink 182 lyrics available at Muzikum

Related Blink 182 Bass Tabs

Family Reunion (clean:p) bass
First Date W/ Lyrics bass
Family Reunion(live) bass
Feels So Good bass
Let Her Go bass
Don't Leave Me (power Chord Way If You Get Bored) bass
Heart\'s All Gone bass
Stay Together 4 The Kids bass
Action bass
Always Intro/ Main Riff bass
G O bass
Mark Tom And Travis Show bass
Lemmings bass
Untitled bass
The Rock Show bass
Here\'s Your Letter bass
Action(feeling This) bass
Adam's Song Real Ver bass
Pathetic Live bass
The anthem pt2 bass


Guitar Tabs









All tabs are property and copyright of their owners. All tabs provided for educational purposes only. Privacy Policy, DMCA