Blink 182

Natives Bass Tabs



More from Blink 182

Blink 182 Tabs
Blink 182 Chords
Blink 182 Bass
Blink 182 Lyrics

Intro

G |----------------------------------|
D |----------------------------------|
A |----------------2--4--------------|
E |--4--0--4--0---------4--0---------|

Verse

G |-----------------------------------|
D |-----------------------------------|
A |-----------------------------------|
E |---4----6----0---------------- x 4-|

Chorus

G |--------------------------------------|
D |--------------------------------------|
A |---2--7--2--7-----------2---7---------|
E |------------------4--0----------------|

Pre verse #2

G |----------------------------------|
D |----------------------------------|
A |--2----4--------------------------|
E |------------4----0----------------|

Bridge

G |----------------------------------------|
D |----------------------------------------|
A |---2-------2--------2---7---11--7-------|
E |-------0-------0------------------------|

Outro

G |-------------------------------------|
D |-------------------------------------|
A |---2---7---2---7---------------------|
E |---------------------4--6--0---------|
Get this song at amazon.com      Ebay     Ringtones Ringtones  


Learn to play: Songwriting, Piano, Harmonica, Guitar
More Blink 182 lyrics available at Muzikum

Related Blink 182 Bass Tabs

Stockholm Syndrome bass
Always bass
Go bass
Easy Target 100% bass
T V bass
I Wont Be Home For Christmas bass
Take Off Your Pants And Jacket (album) bass
Apple Shampoo bass
Sex With His Sister bass
The anthem pt2 bass
Carousel - Blink 182 bass
Instrumental bass
Take Off Your Pants And Jacket - Bass Tab bass
Waggy bass
M&m's bass
Man Overboard bass
This Is Home bass
D***it bass
Shut Up bass
Josie (with Lyrics) bass


Guitar Tabs









All tabs are property and copyright of their owners. All tabs provided for educational purposes only. Privacy Policy, DMCA