Blink 182

My Pet Sally Tabs



More from Blink 182

Blink 182 Tabs
Blink 182 Chords
Blink 182 Bass
Blink 182 Lyrics

tabs-database.com[http://www.tabs-database.com.com/]
Band: Blink

Song: My Pet Sally

Album: Buddha

Tabbed by: Miro Denck

Tuning: Standart (E-A-D-G-B-E)

Contact or requests: webmaster at tabs-database.com.com



Riff1 (4x)

|------------------------------|

|------------------------------|

|----9-----9-----7-----7---7p6-|

|--7---7-7---7-7---7-7---7-----|

|------------------------------|

|------------------------------|



Verse (2x)

|-----------------------------------|

|---------10-10---------------------|

|-----9-9--9--9-7-7-----9-9-7-7-----|

|-7-7-9-9--7--7-7-7-7-7-9-9-7-7-7-7-|

|-7-7-7-7-------5-5-7-7-7-7-5-5-7-7-|

|-5-5---------------5-5---------5-5-|



Chorus

|------<2x>-------|-----------------------|

|-----------------|-----------------------|

|-9-9-7-7---------|-------6-7-7-7-7-7-7-7-|

|-9-9-7-7-7-7-7-7-|-2-2-2-6-7-7-7-7-7-7-7-|

|-7-7-5-5-7-7-7-7-|-2-2-2-4-5-5-5-5-5-5-5-|

|---------5-5-5-5-|-0-0-0-----------------|



Riff1 (4x)



Verse (2x)



Interlude

|---------------------------------|

|---------------------------------|

|-6-7-9-7-6-7-9-7-6-7-9-7-6-7-9-7-|

|-6-7-9-7-6-7-9-7-6-7-9-7-6-7-9-7-|

|-4-5-7-5-4-5-7-5-4-5-7-5-4-5-7-5-|

|---------------------------------|

Sally, please, don't go away...



Outro:

|------<3x>-------|-------------------------|

|-----------------|-10-10-10-10-10-10-10-10-|

|-----------------|--9--9--9--9--9--9--9--9-|

|-7-7-7-7-7-7-7-7-|--7--7--7--7--7--7--7--7-|

|-7-7-7-7-7-7-7-7-|-------------------------|

|-5-5-5-5-5-5-5-5-|-------------------------|



|-----------------------------------|

|---------10-10---------------------|

|-----9-9--9--9-7-7-----9-9-7-7-----|

|-7-7-9-9--7--7-7-7-7-7-9-9-7-7-7-7-|

|-7-7-7-7-------5-5-7-7-7-7-5-5-7-7-|

|-5-5---------------5-5---------5-5-|



|---------------------------------------|

|---------10-10-------------------------|

|-----9-9--9--9-7-7-----9-9-7-6-7-6-----|

|-7-7-9-9--7--7-7-7-7-7-9-9-7-6-7-6-7---|

|-7-7-7-7-------5-5-7-7-7-7-5-4-5-4-7---|

|-5-5---------------5-5-------------5/0-|



*********************************************************

p = Pull off

/ = Slide down

*********************************************************

I'm gonna wanna see myself with someone too

Friends I don't pay are friends i never knew

So I took the chance and got some help from few

A long and skinny friend to talk to



Cause I have the time and the liberty

To play with my new pet sally

Please don't go away, Sally please



No more lonely showers and uneaten food

My salamander has hygiene too

And he thinks of me the way I think of you

The only next step is for him to say I do



Cause I have the time and the liberty

To play with my new pet sally

P.E.O. I love you



Sally please don't go away

I won't be living in yesterday

The lonely nights

Getting beat up by gays in bar fights
Added by tabs-database.com and our distinguished partners
Get this song at amazon.com      Ebay     Ringtones Ringtones  


Learn to play: Songwriting, Piano, Harmonica, Guitar
Also available at Muzikum: Blink 182 - My Pet Sally lyrics

Related Blink 182 Tabs

All The Small Things Live Solo tabs
Anthem Pt. 2 tabs
Blow Job tabs
Tv tabs
A New Hope Intro tabs
Dick Lips tabs
Stay Together For The Kids tabs
I Miss You tabs
M&ms tabs
Action tabs
All New Songs tabs
Dead Man's Curve tabs
Untitled tabs
Dysentery Gary Acoustic tabs
Heres Your Letter tabs
Dumpweed tabs
All Of This tabs
Pathetic tabs
Fck A Dog tabs
Feelin This tabs


Guitar Tabs









All tabs are property and copyright of their owners. All tabs provided for educational purposes only. Privacy Policy, DMCA