Blink 182

Mutt Bass Tabs



More from Blink 182

Blink 182 Tabs
Blink 182 Chords
Blink 182 Bass
Blink 182 Lyrics

Date: Wed, 12 Jul 2000 00:30:13 -0400
From: Shoe386023@aol.com
Subject: b/blink_182/mutt.btab

Blink 182
Mutt
Song 10 
Tabed By Ross Bindler Bassiest for Untitled 
E-mail: Shoe386023@aol.com


This is the best song on the cd!  
One of the funnest to play too!

Time Signature: 4/4
Tuning: E A D G
h-Hammer
...-So on (More notes then I want to type)

Intro 2
G------------------------------
D------------------000...-22-00
A-000...-22-44-----------------
E------------------------------

Verse
G-----------------------
D ------------4444-22222
A-0000000-2-4-----------
E-----------------------

Pre-Chorse
G-------------------
D-00000000-22222222-
A-------------------
E-------------------

The Best part!!! The Chorse!
G-------------------------------2----
D-------2h4h2------2h4h2----4-0--0-2-
A-0-0-0------0-0-0------2-2--2-------
E------------------------------------

Bridge
G-----------------
D-----------------
A-0-0-2-2-5-5-4-4-
E-----------------

Outro
G---------
D---------
A-0-2-5-4-
E---------

Now the song goes:

Drum Fill (No Bass)
Intro-1 (No Bass)
Intro-2 x2
Verse x4
Pre-Chorse x1
Chorse x6
Intro-2 x2
Verse x4
Pre-Chorse x1
Chorse x6
Bridge x2
Chourse x6
Outro x2

Well thats the whole song so now go and play it!
Send any comments, better tabs, and anyother Blink 182 bass tabs you might
Have-Ross Bindler-Shoe386023@aol.com
Thanx okay bye
Get this song at amazon.com      Ebay     Ringtones Ringtones  


Learn to play: Songwriting, Piano, Harmonica, Guitar
Also available at Muzikum: Blink 182 - Mutt lyrics

Related Blink 182 Bass Tabs

Feelin This bass
Alone bass
Wont Be Home For Christmas bass
Peggy Sue bass
Dont bass
Stockholm Syndrome bass
Dancing With Myself bass
Snake Charmer bass
Hold On bass
Dysentery Gary (the Correct Bridge) bass
Romeo And Rebecca bass
Wrecked Him bass
Down bass
Strings bass
Verse For Cacophony bass
Take Off Your Pants And Jacket - Bass Tab bass
Adam\'s Song bass
Adams Song bass
First Date (live) bass
Fuck A Dog bass


Guitar Tabs









All tabs are property and copyright of their owners. All tabs provided for educational purposes only. Privacy Policy, DMCA