Blink 182

Marlboro Man Tabs



More from Blink 182

Blink 182 Tabs
Blink 182 Chords
Blink 182 Bass
Blink 182 Lyrics

tabs-database.com[http://www.tabs-database.com.com/]
Artist: Blink 182

Song: Marlboro Man

Album: Flyswatter (Demo)

Tabbed By: sampeckham2301

Tuning: Standard (EADGBE)



Let ring: ~

Mute after playing: *

Palm mute: pm.......

Strum while placing left hand lightly over strings: -x-





Intro 1 (when guitar comes in for the first time on clean):



E|---------------------------------------------------------------------|

B|---------------------------------------------------------------------|

G|---------------------------------------77-7-7-x-x-7-x-7-77-----------|

D|-x-7-7-x-x-7-x-7-77-x-7-7-x-x-7-x-7-77-77-7-7-x-x-7-x-7-77-7-7-7-x-x-|

A|-x-7-7-x-x-7-x-7-77-x-7-7-x-x-7-x-7-77-55-5-5-x-x-5-x-5-55-7-7-7-x-x-|

E|-x-5-5-x-x-5-x-5-55-x-5-5-x-x-5-x-5-55---------------------5-5-5-x-x-|



E|----------------------------------------------------------|

B|----------------------------------------------------------|

G|-----------99-9-9-x-x-9-x-9-99----------------------------|

D|-77-x-7-77-99-9-9-x-x-9-x-9-99-7-7-7-77-x-x-7-77----7~----|

A|-77-x-7-77-77-7-7-x-x-7-x-7-77-7-7-7-77-x-x-7-77----7~----|

E|-55-x-5-55---------------------5-5-5-55-x-x-5-55----5~----|





Break (switch to distortion): (x2)



E|--------------------------------------------------------------------------|

B|--------------------------------------------------------------------------|

G|--------------------------------------------------------------------------|

D|--------------------------------------------------------------------------|

A|-0-12-0-0-11-0-0-14-0-0-14-0-12-0-0-0-0-12-0-0-11-0-0-9-0-0-9-0-7-0-0-0-0-|

E|--------------------------------------------------------------------------|

pm..........................................................................





Pre-verse: (x2)

E|--------------------------------------------------------------------|

B|--------------------------------------------------------------------|

G|--------------------------------------------------------------------|

D|--------------------------------------------------------------------|

A|-0-12-0-0-11-0-0-14-0-0-14-0-12~-0-0-12-0-0-11-0-0-9-0-0-9-0-7-0~-0-|

E|--------------------------------------------------------------------|





Verse: (x4)

E|-----------------------------------------------------------------|

B|-----------------------------------------------------------------|

G|-----------------7-7-7-7-7-7-7-7-9-9-9-9-9-9-9-9-----------------|

D|-7-7-7-7-7-7-7-7-7-7-7-7-7-7-7-7-9-9-9-9-9-9-9-9-7---2---4---6---|

A|-7-7-7-7-7-7-7-7-5-5-5-5-5-5-5-5-7-7-7-7-7-7-7-7-7---2---4---6---|

E|-5-5-5-5-5-5-5-5---------------------------------5---0---2---4---|

pm ...............................





Pre-chorus: (x2)

E|----------------------------------------------------------------------|

B|-------------------------------------------------------------10-------|

G|-7-7-7-7-7-6-4-------------------9---9-9-9-9-9-9-9--------------9---9-|

D|-7-7-7-7-7-6-4-7---7-7-7-7-7-7-7-9---9-9-9-9-9-9-9-7---7-7-7------7---|

A|-5-5-5-5-5-4-2-7---7-7-7-7-7-7-7-7---7-7-7-7-7-7-7-7---7-7-7----------|

E|---------------5---5-5-5-5-5-5-5-------------------5---5-5-5----------|



E|---------------------------------------------------------------------|

B|---------------------------------------------------------------------|

G|-7-7-7-7-7-6-4-------------------9---9-9-9-9-9-9-9-------------------|

D|-7-7-7-7-7-6-4-7---7-7-7-7-7-7-7-9---9-9-9-9-9-9-9-7---7-7-7-4-4-6-6-|

A|-5-5-5-5-5-4-2-7---7-7-7-7-7-7-7-7---7-7-7-7-7-7-7-7---7-7-7-2-2-4-4-|

E|---------------5---5-5-5-5-5-5-5-------------------5---5-5-5---------|





Chorus: (x2)

E|-----------------------------------------------------------------------|

B|-----------------------------------------------------------------------|

G|-9-9-9-9-9-9-9-9-9-9-9-9-9-9-9-9---------------------------------------|

D|-9-9-9-9-9-9-9-9-9-9-9-9-9-9-9-9---------------------------------------|

A|-7-7-7-7-7-7-7-7-7-7-7-7-7-7-7-7-0-0-12-0-11-0-0-14-0-0-12-0-11-0-12-0-|

E|-----------------------------------------------------------------------|

pm .......................................



E|-----------------------------------------------------------------------|

B|-----------------------------------------------------------------------|

G|-----------------------------------------------------------------------|

D|-4-4-4-4-4-4-4-4-4-4-4-4-4-4-4-4-----12---11-----------------11~-------|

A|-4-4-4-4-4-4-4-4-4-4-4-4-4-4-4-4-0-0----0----0-0-14-0-0-14-0-----0~----|

E|-2-2-2-2-2-2-2-2-2-2-2-2-2-2-2-2---------------------------------------|

pm .............................



After that, play pre-verse riff twice more.



Break: (x3)

E|---------------------------------|

B|---------------------------------|

G|---------7-7-7-7-9-9-9-9*--------|

D|-7-7-7-7-7-7-7-7-9-9-9-9*--------|

A|-7-7-7-7-5-5-5-5-7-7-7-7*--------|

E|-5-5-5-5-------------------------|



then....

E|---------------------------------|

B|---------------------------------|

G|---------7-7-7-7-9-9-9-9-9-9-9-9-|

D|-7-7-7-7-7-7-7-7-9-9-9-9-9-9-9-9-|

A|-7-7-7-7-5-5-5-5-7-7-7-7-7-7-7-7-|

E|-5-5-5-5-------------------------|

pm .................





Then play verse riff twice more with no singing, followed by chorus.



Bass solo:

E|------|

B|------|

G|-9~---|

D|-9~---|

A|-7~---|

E|------|



After that there is sort of half a chorus. Play this riff under it:

E|-----------------------------------------------------------------|

B|-----------------------------------------------------------------|

G|-9-9-9-9-9-9-9-9-9-9-9-9-9-9-9-9---------------------------------|

D|-9-9-9-9-9-9-9-9-9-9-9-9-9-9-9-9-7-7-7-7-7-7-7-7-7-7-7-7-7-7-7-7-|

A|-7-7-7-7-7-7-7-7-7-7-7-7-7-7-7-7-7-7-7-7-7-7-7-7-7-7-7-7-7-7-7-7-|

E|---------------------------------5-5-5-5-5-5-5-5-5-5-5-5-5-5-5-5-|



E|-----------------------------------------------------------------|

B|-----------------------------------------------------------------|

G|---------------------------------7-7-7-7-7-7-7-7-7-7-7-7-7-7-7-7-|

D|-4-4-4-4-4-4-4-4-4-4-4-4-4-4-4-4-7-7-7-7-7-7-7-7-7-7-7-7-7-7-7-7-|

A|-4-4-4-4-4-4-4-4-4-4-4-4-4-4-4-4-5-5-5-5-5-5-5-5-5-5-5-5-5-5-5-5-|

E|-2-2-2-2-2-2-2-2-2-2-2-2-2-2-2-2---------------------------------|





Solo:

E|------------------------------------------------0---------------0--00------|

B|-----3-------3-2-0-------------------2-22-2-2-2---3-2-3-33-3-2-3-23--2-0-0-|

G|-4-4---4-4-4-------2-22-2-2-2-22-222---------------------------------------|

D|---------------------------------------------------------------------------|

A|---------------------------------------------------------------------------|

E|---------------------------------------------------------------------------|



E|-----------------------------------------0----------------------|

B|-3-3-0-0-3-2-0----5--5--5--55-2-22-2-2-2---3-2-3-32-3-5-3-2-0-x-|

G|---------------2-2--2--2--2-------------------------------------|

D|----------------------------------------------------------------|

A|----------------------------------------------------------------|

E|----------------------------------------------------------------|





Outro (this was quite hard to make out):

E|---------------------------------------------------------------------------|

B|---------------------------------------------------------------------------|

G|---------------------------------------------------------------------------|

D|-2-2-2-2-2-2-2-2-2-2-2-2-2-2-2-2-7-7-7-7-7-7-7-7-7-7-7-7-7-7-7-7-4-4-4-4-4-|

A|-2-2-2-2-2-2-2-2-2-2-2-2-2-2-2-2-7-7-7-7-7-7-7-7-7-7-7-7-7-7-7-7-4-4-4-4-4-|

E|-0-0-0-0-0-0-0-0-0-0-0-0-0-0-0-0-5-5-5-5-5-5-5-5-5-5-5-5-5-5-5-5-2-2-2-2-2-|



E|---------------------------------------------------------------|

B|---------------------------------------------------------------|

G|-----------------------7-7-7-7-7-7-7-7-7-7-7-7-7-7-7-7---------|

D|-4-4-4-4-4-4-4-4-4-4-4-7-7-7-7-7-7-7-7-7-7-7-7-7-7-7-7-7~------|

A|-4-4-4-4-4-4-4-4-4-4-4-5-5-5-5-5-5-5-5-5-5-5-5-5-5-5-5-7~------|

E|-2-2-2-2-2-2-2-2-2-2-2---------------------------------5~------|



The only other tab for this song was wrong, so I thought I’d do it. Have fun and please rate.
Added by tabs-database.com and our distinguished partners
Get this song at amazon.com      Ebay     Ringtones Ringtones  


Learn to play: Songwriting, Piano, Harmonica, Guitar
Also available at Muzikum: Blink 182 - Marlboro Man lyrics

Related Blink 182 Tabs

Dancing With Myself tabs
The Enema Strikes Back tabs
All The Small Things tabs
Dammit tabs
Man Overboard tabs
Adams Song Intro2 tabs
The Grandpa Song tabs
M&ms tabs
21 Days3 tabs
Dude Ranch Album tabs
Track 15 tabs
Romeo & Rebecca tabs
Adams Song tabs
Touchdown Boy Intro-easy tabs
Time To Wake Up Intro tabs
Alone tabs
Don\'t Leave Me tabs
Macca Is Gay tabs
Dead Mans Cure tabs
Phantom Of The Opera tabs


Guitar Tabs









All tabs are property and copyright of their owners. All tabs provided for educational purposes only. Privacy Policy, DMCA

Online converter - videoconverter.com