Blink 182

Marks Boyfriend Tabs



More from Blink 182

Blink 182 Tabs
Blink 182 Chords
Blink 182 Bass
Blink 182 Lyrics

-------------------------------------------------------------------------------
			           MARK'S BOYFRIEND - Blink 182
-------------------------------------------------------------------------------

LpC pUnK - brainwashed@mindspring.com

This is a correction on "Mark's solo" they only play this song live, so most
of you haven' heard it.

< = down stroke > = up stroke 

    G        A       C
e|-------|-------|-------|
B|-------|-------|-------|
G|-------|---7---|---5---|
D|---5---|---7---|---5---|
A|---5---|---5---|---3---|
E|---3---|-------|-------|

e|--------------------------|
B|--------------------------|       
G|------7777-55555555-------|             
Get this song at amazon.com      Ebay     Ringtones Ringtones  


Learn to play: Songwriting, Piano, Harmonica, Guitar
Also available at Muzikum: Blink 182 - Marks Boyfriend lyrics

Related Blink 182 Tabs

Rock Show tabs
Always tabs
What Went Wrong Acoustic tabs
A New Hope Intro tabs
Palmadillo tabs
Feels So Good tabs
Eddy tabs
I'm Sorry tabs
Feeling This Live tabs
Anthem Part 2 tabs
Aliens Exist tabs
A New Hope Solo tabs
Cereal tabs
Violence tabs
Wrecked Him tabs
Rollercoaster tabs
Blow Job tabs
Grampa Is An Asshole tabs
The Girl Next Door tabs
What Went Wrong tabs


Guitar Tabs









All tabs are property and copyright of their owners. All tabs provided for educational purposes only. Privacy Policy, DMCA