Blink 182

Mark Tom And Travis Show Tabs



More from Blink 182

Blink 182 Tabs
Blink 182 Chords
Blink 182 Bass
Blink 182 Lyrics



======================================================================

BLINK 182- THE MARK,TOM AND TRAVIS SHOW-LIVE

======================================================================

Tuning:EADGBE



-SONG LIST-



#1-DUMPWEED

#2-DONT LEAVE ME

#3-ALIENS EXIST

#4-FAMILY REUNION

#5-GOING AWAY TO COLLEGE

#6-WHATS MY AGE AGAIN

#7-RICH LIPS

#8-BLEW JOB

#9-UNTITLED

#10-VOYEUR

#11-PATHETIC

#12-ADAMS SONG

#13-PEGGY SUE

#14-WENDY CLEAR

#15-CAROUSEL

#16-ALL THE SMALL THINGS

#17-MUTT

#18-THE COUNTRY SONG

#19-DAMMIT

#20-MAN OVERBOARD

#21-I KNOW A GUY

=========================================================================

DUMPWEED-



INTRO-PT 1

e|-----------------------------------------------------------------------|

B|-----------------------------------------------------------------------|

G|----H-P------------H-P-------------H-P---------------H-P---------------|

D|---6-7-6----------6-7-6------------6-7-6------------6-7-6-9------------|X1

A|-2--------0-9-0-2--------0-9-0~-7----------0-9-0--7~----------9--------|

E|-0------7-------0------7--------5--------7--------5---------7----------|



INTRO PT 2

e|-4P0---0-4P0----2P0---0--2P0---4P0---4P0---5P0---5P0-------------------|

B|-----0-------0------0--------0-----0-----0-----0-----0-----------------|

G|-----------------------------------------------------------------------|

D|-----------------------------------------------------------------------|X2

A|-----------------------------------------------------------------------|

E|-----------------------------------------------------------------------|



VERSE 1 (PM)

Em B Em B

Its understood i said in many ways,to scared to run,im to scared to stay

A B A B

i said id leave,but i could never leave her,and if i did,you no id never

Em B Em B

cheat her,but this i ask,its what i want to know,how you feel if i should

A B A

choose to go,another guy,you think it`d be unlikely,another guy,

B

you`d think he`d want to fight me



INTRO P1-X1



CHORUS-

Em B A

Shes a dove,she a fuc*en nightmare,unpredictable,

B Em B A

it was my mistake to stay here,on the go and its way to late to play,

B

i need a girl that i can train



INTRO PT2-X2



VERSE 2-



Em B

I heard it once,im sure i heard it twice,

Em B

my dad use to give me all of his advice

A B

he would say you gotta turn your back and now

A B

come on son,you havent got a chance now



INTRO PT1-X1



CHORUS-X2



BRIDGE PT1-X4 (3RD & 4TH TIMES ADD VOCALS)



I need a girl that i can train,i need a girl that i can train



e|-----------------------------------------------------------------------|

B|-----------------------------------------------------------------------|

G|-----------------------------------------------------------------------|

D|-------------------4-4-4-4-4-----------------------4-4-4-4-4-----------|

A|-2-2-2-2-2-2-2-2---2-2-2-2-2-----2-2-2-2-2-2-2-2---2-2-2-2-2-----------|

E|-0-0-0-0-0-0-0-0-----------------0-0-0-0-0-0-0-0-----------------------|



e|-----------------------------------------------------------------------|

B|-----------------------------------------------------------------------|

G|-------------------2-2-2-2-2-2-----------------------------------------|

D|-4-4-4-4-4-4-4-4---0-0-0-0-0-0---4-4-4-4-4-4-4-4---2-2-2-2-2-----------|

A|-2-2-2-2-2-2-2-2-----------------2-2-2-2-2-2-2-2---0-0-0-0-0-----------|

E|-----------------------------------------------------------------------|



BRIDGE PT2



Turn your back and run now,you havent got a chance now



e|-4-4-0---0--2-0-0-0--4-4-0---0--5-0-0-0--------------------------------|

B|-------0-------------------0-------------------------------------------|

G|-----------------------------------------------------------------------|

D|-----------------------------------------------------------------------|

A|-----------------------------------------------------------------------|

E|-----------------------------------------------------------------------|



STRUCTURE-



INTRO PT1 X1

INTRO PT2 X2

VERSE 1 X1

INTRO PT1 X1

CHORUS X1

INTRO PT2 X2

VERSE 2 X1

INTRO PT1 X1

CHORUS X2

BRIDGE PT1 X2 (NO VOCALS)

BRIDGE PT1 X2 (WITH VOCALS)

BRIDGE PT2 X4 (WITH VOCALS)

END



| / slide up

| \ slide down

| h hammer-on

| p pull-off

| ~ vibrato

| + harmonic

| x Mute note



==========================================================================

DONT LEAVE ME-



INTRO-



E-------------------------------------------------------------------------|

B-------------------------------------------------------------------------|

G----------2-2-2-2-2-2-----------7-7-7-7-7-7-----------4-4-4-4-4-4--------|

D----------2-2-2-2-2-2-----------7-7-7-7-7-7-----------4-4-4-4-4-4--------|

A-0-0-0-0--0-0-0-0-0-0--0-0-0-0--5-5-5-5-5-5--5-5-5-5--2-2-2-2-2-2--------|

E-------------------------------------------------------------------------|

x x x x x x x x x x x x



E-------------------------------------------------------------------------|

B-------------------------------------------------------------------------|

G-7-7-7-7-7-7-7-7--9-9-9-9-9-9-9-9----------------------------------------|

D-7-7-7-7-7-7-7-7--9-9-9-9-9-9-9-9----------------------------------------|X2

A-5-5-5-5-5-5-5-5--7-7-7-7-7-7-7-7----------------------------------------|

E-------------------------------------------------------------------------|



VERSE 1-

A~

Dont leave me all alone,just drop me off at home

ill be fine,its not the first,just like last time

but a little worse



CHORUS-

E(x) B D Em

And,she said that im not the one that she thinks about and

A B D Em

she said it stopped being fun i just bring her down

A B D Em

i said dont dont let your future be destroyed by my past

A B D

she said dont let my door hit your ass



VERSE 2-

A~

one more chance ill try this time ill give you your i wont take mine



lll listen up pre tend to care go on ahead ill meet you there



CHORUS-X1



INTERLUDE-

(LETS TRY THIS ONE MORE TIME WITH FEELING-PT)

E--------------------------------------------------------------------|

B-----------10---------------10--------------------------------------|

G-14~--------X---------------X---------------------------------------|

D-X-----7-7--7-7-7------7-7--7--7-7-7--------------------------------|X7

A-12~---0-0--0-0-0------0-0--0--0-0-0--------------------------------|

E--------------------------------------------------------------------|



CHORUS X1



OUTRO-

A~ A(oct) A

Dont leave me all alone just drop me off at home and ill be fine



MARK(YOU WILL BE FINE YOU FUC*KING ASSHOL*)



STRUCTURE-



INTRO X2

VERSE X1

CHORUS X1

VERSE X1

CHORUS X1

INTERLUDE X1

CHORUS X1

OUTRO X1



===================================================================

ALIENS EXIST-



INTRO-

E-----------------------------------------------------------------|

B-----------------------------------------------------------------|

G-----------------------------------------------------------------|

D-----------------------------------------------------------------|X1

A-2-2-2-2-2-2-2-2-2-2-2-2-2-2-2-1-1-1-----------------------------|

E-----------------------------------------------------------------|

x x x x x x x x x x x x x x x x x x



VERSE 1-

B~

Hey mum theres something in the back room

i hope its not those cretures from above

you use to read me storys,as if my dreams were boring

we all know conspiracies are dumb



INTERLUDE (PICK SCRAPE)



E----------------------------------------------------------------|

B----------------------------------------------------------------|

G-4-4-4-4-4--4---------------------------------------------------|

D-4-4-4-4-4--4-2-2-2-2-2-2--2-6-6-6-6-6-6--6-2-2-2-2-2-2---------|X2

A-2-2-2-2-2--2-2-2-2-2-2-2--2-6-6-6-6-6-6--6-2-2-2-2-2-2---------|

E--------------0-0-0-0-0-0--0-4-4-4-4-4-4--4-0-0-0-0-0-0---------|



VERSE 1-

B F# G# E

What if people knew that these were real,

B F# G# E

id leave my closet door open all night,

B C# G# E

i know the c.i.a would say,what you hear is all heresay

B F# G#

i wish someone would tell me what was right



INTERLUDE X2



VERSE 2-

B F# G# E

I am still a skeptic yes you know me,

B F# G# E

been best friends and will be till we die,

B C# C# E

i got an injection of blood from my erection

B F# G#

my best friend thinks im just humping guys....alright



CHORUS-



B F# B F#

Up all night long,and theres something very wrong,and i



Know it must be late

beeb gone since yesterday

E--------------------------------------------------------------|

B--------------------------------------------------------------|

G--------------------------------------------------------------|

D-1--1------1--1-----2--2----2--2------------------------------|X2

A-------2--------2---------2-------2---------------------------|

E--------------------------------------------------------------|



F# Em B F# Em

Im not like you guys,im not like you



INTERLUDE #2(OCTIVE SOLO)

B# X64(8 BARS)D# X16(2 BARS) C#

E--------------------------------------------------------------|

B--------------------------------------------------------------|

G-44444444--8-8-8-8-8-8-8-8--8\-6-6-6-6-6-6-6-6-6-6-6-6-6-6-6--|

D-xxxxxxxx--x-x-x-x-x-x-x-x--x\-x-x-x-x-x-x-x-x-x-x-x-x-x-x-x--|

A-22222222--6-6-6-6-6-6-6-6--6\-4-4-4-4-4-4-4-4-4-4-4-4-4-4-4--|

E--------------------------------------------------------------|



E--------------------------------------------------------------|

B--------------------------------------------------------------|

G-6/9-9-9-9-9-9-9-9-9-9-9-9-9-9-9\8-8-8-8-8-8-8-8-8-8-8-8-8-6--|

D-x-x-x-x-x-x-x-x-x-x-x-x-x-x-x-x-x-x-x-x-x-x-x-x-x-x-x-x-x-x--|

A-4-7-7-7-7-7-7-7-7-7-7-7-7-7-7-7-6-6-6-6-6-6-6-6-6-6-6-6-6-4--|

E--------------------------------------------------------------|



BRIDGE-



G# F# E B F#

Dark and scary,ordinary,explanation information

D#oct C#oct Eoct D#oct C#oct

nice to no ya paranoia,where my mother bio father



CHORUS X1



OUTRO-



F# E B F# E B

Im not like you guys twelve majestic lies



MARK-(TOM HAS SEX WITH GUYS)



STRUCTURE-



INTRO X1

VERSE X1 (BASS)

INTERLUDE X1

VERSE 2 X1

CHORUS X1

INTERLUDE #2 X1

BRIDGE X1

CHORUS X1

OUTRO X1



=====================================================================

FAMILY REUNION-

INTRO-A (LET RING)

A B C#

Shit,piss,fuck,cunt,cock sucker,mother fucker,tits fart turd & twott



END ON A~



======================================================================

GOING AWAY TO COLLEGE-



INTRO-(PT 1)



E-x-x--x-x-x--x-x-x-x-x-x---x-x--x-x-x-x-x-x-x-x-x--------|

B-2-2--2-2-2--0-0-0-0-0-0---2-2--2-2-2-0-0-0-0-0-0--------|

G-2-2--2-2-2--2-2-2-2-2-2---2-2--2-2-2-2-2-2-2-2-2--------|

D-x-x--x-x-x--x-x-x-x-x-x---x-x--x-x-x-x-x-x-x-x-x--------|

A-0-0--0-0-0--0-0-0-0-0-0---x-x--x-x-x-x-x-x-x-x-x--------|

E---------------------------------------------------------|



E-x-x--x-x-x--x-x-x-x-x-x---x-x--x-x-x-x-x-x-x-x-x--------|

B-2-2--2-2-2--0-0-0-0-0-0---2-2--2-2-2-2-0-0-0-0-0--------|

G-2-2--2-2-2--2-2-2-2-2-2---2-2--2-2-2-2-2-2-2-2-2--------|

D-0-0--0-0-0--0-0-0-0-0-0---0-0--0-0-0-0-0-0-0-0-0--------|X2

A-0-0--0-0-0--0-0-0-0-0-0---0-0--0-0-0-0-0-0-0-0-0--------|

E---------------------------------------------------------|



INTRO (PT 2)



E---------------------------------------------------------|

B---------------------------------------------------------|

G------------6-------------6-------------6----------------|

D-----7------------7------------7---------------9-----9---|X2

A-0-0---0-0----0-0---0-0----5-5----5-5------7-7---7-7-----|

E---------------------------------------------------------|



VERSE 1-



A~

Please take me by the hand,its so cold out tonight ill



put blankets on the bed,but i wont turn out the lights

A D E

just,dont forget to, think about me and i,

A D E

wont forget you, ill write you one a week she said



INTRO PT 2 X2



VERSE 2-

A~

Why does it feel tha same to fall in love or break it off



and if young love is just a game then,



i must have missed the kick off

A D E

Dont depend on me to ever follow through on

A D E

anything but, id go through hell for you and



CHORUS-



C#oct Doct A E

I havent been this scared,in a long time

C#oct Doct A E

and im so unprepared so heres your valentine

C#oct D#oct A

bouquet of clumbsy words, a simple melody

C#oct D#oct A

this worlds an ugly place, but your so beautiful to me



INTRO PT 1 X2



VERSE 3(ill just put the tabs for this pt,its easy to work out)



Ill think about the times you kissed me after class and

you put up with my friend,i acted like an ass,id

ditch my lecture,to watch the girls play soccer

is my picture still hanging in your locker



E------------------------------------------------------------|

B------------------------------------------------------------|

G-----6-----6------6-----6------6------6------7--------------|

D----------------------------------------------------7-------|X2

A-0-0---0-0----0-0---0-0----5-5----5-5----7-7----7-7---------|

E------------------------------------------------------------|



CHORUS X1

END ON Em



STRUCTURE-



INTRO PT1

INTRO PT2

VERSE 1

INTRO PT2

VERSE 2

CHORUS

INTRO PT1

VERSE 3

CHORUS

END Em



===================================================================

WHATS MY AGE AGAIN?-(THIS IS PROBLEY THE HARDEST TO PLAY)

(OUT OF ALL OF THEM)

INTRO-

E-----------------------------------------------------------------|

B------11----------11---------11-----------11---------------------|

G---11----11----11----11---11----11-----11----11------------------|

D-9---------------------------------------------------------------|X2

A------------9----------------------------------------------------|

E------------------------9-----------11---------------------------|



VERSE 1-



E-----------------------------------------------------------------|

B------11-------11-------11-------11------------------------------|

G---11---11---11--11---11--11---11--11----------------------------|

D-9---------------------------------------------------------------|X3

A-----------9-----------------------------------------------------|

E--------------------9--------11----------------------------------|



E-----------------------------------------------------------------|

B------11-------11-------11------11-------11------11--------------|

G---11---11---11--11---11--11--11--11---11--11--11--11------------|

D-9-----------------------------------9--------9------------------|X1

A-----------9-----------------------------------------------------|

E--------------------9--------9-----------------------------------|



VERSE 1(LYRICS)

I took her out it was a friday night,

i wore cologne to get the feeling right

we started makking,then she took off my pants

but then i turned on the tv,and thats about the time she walked



CHORUS-



F# C# D# B F# C#

Away from me, nobody likes you when your twenty three

B F# C# D# B

and your still amused by tv shows, what the hell is a.d.d

F# C# D#

my friends say i should act my age, whats my age again,

C#

whats my age again



INTRO-



VERSE 2 (PM)



B F# C# D# B F# C#

Then later on, on the drive home i called her mum,

D# B F# C# D#

from a pay phone,i said i was the cops and your husbands in jail,

B F# C#

this state looks,down on sodamy

B

and thats about the time that bitch hung



CHORUS-

F# C# D# B F# C# D#

Up on me, nobody likes you when your twenty three

B F# C#

and are still more amused by prank phone calls

B

what the hell is call i.d

F# C# D# C#

my friends say i should act my age, whats my age again



whats my age again



INTERLUDE-

E--------------------------------------------------------------|

B---11----11-------11----11------------------------------------|

G------11----11-------11----11-------H--------H--------H-------|

D-9--------------9------------------8-9------8-9------8-9------|

A-6----------------------------9-9-9----9-9-9----9-9-9---------|

E--------------------------------------------------------------|

`And thats about the time`

E------------------------------ -----------------------|

B------------------------------ -----------------------|

G--------H-----11-------------- ---------11------------|

D-------8-9--8--------8--------X1 -----8----------8------|X7

A-9-9-9-----9-9---9-9---------- -9-9---9----9-9--------|

E------------------------------ -----------------------|



CHORUS-F# C# D# B



And thats about the time that she broke up with me

no one should take them-selves so seriously

with many years ahead to fall in line

why would you wish that on me,i never want to act my age

whats my age again,whats my age again



OUTRO

F# C# D# B X3



F# C# D# C#

Whats my age again



END ON B



STRUCTURE-



INTRO

VERSE

CHORUS

INTRO

VERSE

CHORUS

INTERLUDE

CHORUS

OUTRO

END

=================================================================

RICH LIPS-



INTRO-

E-------------------------------------------------------------------|

B-------------------------------------------------------------------|

G-------------------------------------------------------------------|

D-7-7-7-7-7-7-7-7-7-7-7-7--7-7-7-7-7-7-7-7-7-7-7-7------------------|

A-4-4-4-4-4-4-4-4-4-4-4-4--5-5-5-5-5-5-5-5-5-5-5-5------------------|

E-------------------------------------------------------------------|



E-------------------------------------------------------------------|

B-------------------------------------------------------------------|

G-------------------------------------------------------------------|

D-7-7-7-7-7-7-7-7-7-7-7-7--9-9-9-9-9-9-9-9-9-9-9-9------------------|X2

A-0-0-0-0-0-0-0-0-0-0-0-0--7-7-7-7-7-7-7-7-7-7-7-7------------------|

E-------------------------------------------------------------------|



VERSE 1-

A D

Please mum,u ground me all the time,i know

E

that i was right all along

A D

and im hoping,you remember im a kid,i know

E

not what i did just having fun,you couldnt



PRE CHORUS-



A/C# D A E

wait,for something new and yesterday,i thught of you

A/C# D

left me to think as if i couldnt walk away,its to late

A E

i fell through



CHORUS-

F# D A E

Nothing to loose,a boy who went out when he finished all his chores

F# D A E

nothing do they cant trust me because i blew it once before



INTRO-



VERSE 2-

A

Shit dad please dont kick my ass i

D E

know ive seen you trashed at least one time

A

can i blame it on one of my dumb friends its

D E

been awhile since i have used that line



PRE CHORUS

A/C# D A E

you couldnt wait for something new and yesterday i thought of you

A/C# D A E

left me to think as if i couldnt walk away its to late i fell through



CHORUS-

Nothing to loose a boy who went out when

he finished all his chores

nothing to do they cant trust me

because i blew it once before



INTRO-



E (FOR ONE BAR OF 16th notes)



BRIDGE-(ALRIGHT)



E------------------------------------------------------------|

B------------------------------------------------------------|

G------------7-6--4-4-4-7-7-7-7-----------7-6--4-4-4-7-7-7-7-|

D-7-7-7-7-7--7-6--4-4-4-7-7-7-7-7-7-7-7-7-7-6--4-4-4-7-7-7-7-|

A-7-7-7-7-7--5-4--2-2-2-5-5-5-5-7-7-7-7-7-5-4--2-2-2-5-5-5-5-|

E-5-5-5-5-5---------------------5-5-5-5-5--------------------|



E------------|

B-1O---------|(PLAY THIS NOTE FOR ABOUT 2 HOURS)

G--X---------| (THEN GO INTO THE CHORUS)

D--7---------| `NOTHING TO LOOSE`

A------------|

E------------|



END ON A-



STRUCTURE-



INTRO-

VERSE 1-

PRE CHORUS-

CHORUS-

INTRO-

VERSE 2-

PRE CHORUS -

CHORUS-

INTRO-

BRIDGE-

CHORUS -

OUTRO-

END-

===============================================================

BLEW JOB-



INTRO-

B Em F# Em



B Em F# Em

It`d be nice to have a blow job,it`d be nice to have a blow job

B Em F# Em

it`d be nice to have a blow job,it`d be nice to have a blow job

B~

from your mum



=================================================================

UNTITLED-



INTRO-

E------------------------------------------------------------|

B------------------------------------------------------------|

G------------------------------------------------------------|

D-4-4-4-4---4-4-4-4-4-4-4-4----------------------------------|X2

A-2-2-2-2---2-2-2-2-2-2-2-2--2-2-2-2--4-4-4-4-4-4-4-4--------|

E----------------------------0-0-0-0--2-2-2-2-2-2-2-2--------|



VERSE 1-

B E F#

I think of awhile ago, we might of had it all

B E F#

i was so stupid then, we needed time to grow

B E F#

but now just as things change, aswell my feelings do

B E F#

in time thing rearange i am so sick of chasing



CHORUS(HALF TIME) (/=SLIDES)

G#~ G#/A E E\B B

You,but what do i get cause i just seem to lose

B/C# C#/D#

you make me regret those times i spent with you

D#/E E\B

and playing those games as i wait for your call

B/D# Emaj

now i give up so good bye and so long



INTRELUDE (FASTER)



B G# F# E D B X2



VERSE 2-

B E F#

Its not a change of pace this time ill get it right,

B E F# B

its not a change taste,i was the one there last night

E F#

you have your other friends they were there when you cried

B E F# G#

didnt mean to hurt you then best friends just wont leave your side



CHORUS-

E B

But what do i get cause i just seem to lose

F# G#

you make me regret those times i spent with you

E B

and playing those games as i wait for your call

F# E

now i give up,so good bye and so



INTRELUDE 2(PM)



LONG

E-----------------------------------------------|

B-----------------------------------------------|

G-----------------------------------------------|

D---1--4---2--1----1--4----2--1-----------------|X4

A-2---------------------------------------------|

E--------2-------0-------2----------------------|



VERSE 3-



Eoct

Its not a change of pace this time ill get it right

E*E* G#

its not a change of taste, i was the one there last nite



CHORUS-

E B

When i needed you most,when i needed a friend

F# G#

you let me down now like i let you down then

E

so sorry,its over



OUTRO-

B F#

AHHHHHHHHHHHHHHHHHHHHHHHHHHHHHHHHH



END ON B



STRUCTURE-



INTRO-

VERSE 1-

CHORUS

INTERLUDE#1-

VERSE 2-

CHORUS

INTERLUDE#2-

VERSE-

CHORUS-

OUTRO-

END-

===============================================================

VOYEUR-



VERSE 1-

C A F

And when the day ends im sure she feels sorrow

C A F

the lonely guy i am,i wait for her to change

C A F

ive been here to days,ill sure be here tomorrow

C A F

id eat her if she were on my dinner plate



CHORUS-

G F C

and i wish,i wish shed be more kind now

RIFF 1-

E---------------------------------|

B---------------------------------|

G---------------------------------|

D-2-2--2-2-3--2-2--2-2------------|X1

A-3-3--3-3----3-3--3-3-5----------|

E----------------------3----------|

G F C G

im out of luck cause the shades are pulled down

F C G

Ive seen everything there is to be shown

F C

i followed her all the way home (RIFF 1)X2



VERSE 2(same)

I i cant be to cool in a tree with my pants down

the air is cold and i got splinters in my feet

she caught me once but i dont think she cares now

unlike before her view is now blocked by a leaf





CHORUS-(same)

BRIDGE-

C F G F

I bet this last times the one time too many

C F G F

the rush of waiting is buring through my head

C F G F

right after supper her brother showers twice a week

C F G F

he kicks my ass so much,that filthy white inbred na na na



VERSE3-

Ive made mistakes by looking in the wrong window

her dad is big and ive never seen his face

ive been here to days ill sure be here tomorrow

my lady`s so sweet she like to entertain



CHORUS(same)

BRIDGE(same



RIFF 2-

E-----------------------------------------|

B-----------------------------------------| (Marks bass solo)

G-----------------------------------------| then

D---------------------------3-3-----------| ONE TWO THREE FOUR

A-3-2-----------------------3-3-----------|

E-----3-3-3-3-3-3-3-3-3-0---1-1-----/-----|



OUTRO-



(*=HIT THE NOTE ONCE)

F*F*C*C*G*G*

F*F*C*G*

F*F*C*G*A



RIFF 1 X2

END ON C



STRUCTURE-



VERSE 1-

CHORUS -

RIFF 1-

VERSE 2-

CHORUS-

BRIDGE-

VERSE 3-

CHORUS-

BRIDGE-

RIFF 2-

OUTRO-

END-

=================================================================

PATHETIC-



INTRO-

E-----------------------------------------------------------------|

B-5/7-0-0-0-5/7-0-0-0-5/7-0-0-0--4-----4---4----------------------|

G-----------------------------------4----4------------------------|

D-----------------------------------------------------------------|X4

A-----------------------------------------------------------------|

E-----------------------------------------------------------------|



VERSE 1-

B

I know im pathetic i knew when she said it

F# E

i loser a bums what she called me when i drove her home

B

theres no waiting and sure no more wasting

F# E B

ive done all i can but she still wants to b left alone

F#

you got,you got,you got to help me out

E B F#

and ill try not to argue,no one,no one no one like a drop out

E

mistakes are hard to undo



CHORUS-

G# B F# B E

Dont pull me down this is where i belong,i think im different



but im the same and im wrong

G# B F# B E

Dont pull me down this is where i belong,i think im different



this is where i belong Added by tabs-database.com and our distinguished partners
Get this song at amazon.com      Ebay     Ringtones Ringtones  


Learn to play: Songwriting, Piano, Harmonica, Guitar
Also available at Muzikum: Blink 182 - Mark Tom And Travis Show lyrics

Related Blink 182 Tabs

Point Of View (Live) tabs
No It Isn't(plus-44) tabs
Romeo And Rebecca tabs
Wendy Clear Bass tabs
Dead Mans Cure tabs
Fucked Up My Life tabs
The Country Song tabs
Dancing With Myself Intro tabs
Voyeur tabs
Dammit (growing Up) tabs
Touchdown Boy Intro-easy tabs
F A Dog tabs
What Went Wrong Acoustic tabs
Adoms Song tabs
It's Obvious tabs
Lemmings tabs
I'm Sorry tabs
Always tabs
Whats My Age Again Perfect tabs
Feelin This tabs


Guitar Tabs









All tabs are property and copyright of their owners. All tabs provided for educational purposes only. Privacy Policy, DMCA

Online converter - videoconverter.com