Blink 182

Mark Tom And Travis Show Bass Tabs



More from Blink 182

Blink 182 Tabs
Blink 182 Chords
Blink 182 Bass
Blink 182 Lyrics



Dumpweed
Blink 182


Intro
I------------------------------I---------------------------I
I------------------------------I---------------------------I
I------------------------------I---------------------------I
I-0----------------0-----------I-5-------------5-----------I

1sr verse
I------------------------------I---------------------------I
I------------------------------I---------------------------I
I------------------------------I---------------------------I
I----0000000----55555555-------I---7777777777777777--------I

2nd verse
I------------------------------I---------------------------I
I------------------------------I---------------------------I
I------------------------------I---------------------------I
I---00000000----77777777-------I---00000000----77777777----I

I------------------------------I---------------------------I
I------------------------------I---------------------------I
I------------------------------I---------------------------I
---55555555----77777777--------I---55555555----77777777----I
Repeat the 2nd verse

2nd intro
I------------------------------I---------------------------I
I------------------------------I---------------------------I
I------------------------------I---------------------------I
I-0----------------0-----------I-5-------------555557--7---I

I------------------------------I---------------------------I
I------------------------------I---------------------------I
I------------------------------I---------------------------I
I-00000000----77777777---------I---55555555----77777777----I

I------------------------------I---------------------------I
I------------------------------I---------------------------I
I------------------------------I---------------------------I
I-00000000----77777777---------I---55555555----7-----7-----I

1sr verse
I------------------------------I---------------------------I
I------------------------------I---------------------------I
I------------------------------I---------------------------I
I----0000000----55555555-------I---7777777777777777--------I

2nd verse
I------------------------------I---------------------------I
I------------------------------I---------------------------I
I------------------------------I---------------------------I
I---00000000----77777777-------I---00000000----77777777----I

I------------------------------I---------------------------I
I------------------------------I---------------------------I
I------------------------------I---------------------------I
I---55555555----77777777-------I---55555555----77777777----I
Play twice

2nd intro
I------------------------------I---------------------------I
I------------------------------I---------------------------I
I------------------------------I---------------------------I
I-0----------------0-----------I-5-------------555557--7---I

3rd verse
I------------------------------I---------------------------I
I------------------------------I---------------------------I
I------------------------------I---------------------------I
I-00000000----77777777---------I---55555555----77777777----I

I------------------------------I---------------------------I
I------------------------------I---------------------------I
I------------------------------I---------------------------I
I-00000000----77777777---------I---55555555----7-----7-----I
play twice 3rd verse

2nd verse
I------------------------------I---------------------------I
I------------------------------I---------------------------I
I------------------------------I---------------------------I
I---00000000----77777777-------I---00000000----77777777----I

I------------------------------I---------------------------I
I------------------------------I---------------------------I
I------------------------------I---------------------------I
I---55555555----77777777-------I---55555555----77777777---I
Play 4 times

Don't Leave Me
Blink 182


Riff 1
G:----------------------------------------------
D:----------------------------------------------
A:-xxxx--0000--xxxx--2222--xxxx-2222-5555-7777--
E:----------------------------------------------

Riff 2 (Verse)
G:----------------------------------------------
D:----------------------------------------------
A:-00000000-55555555-222222-55555555------------
E:----------------------------------------------

Riff 3(Chourus)
G:----------------------------------------------
D:----------------------------------------------
A:-0000-2222-5555-7777--------------------------
E:----------------------------------------------

Riff 4
G:----------------------------------------------
D:----------------------------------------------
A:-0000-2222-55555555---------------------------
E:----------------------------------------------

Riff 5
G:----------------------------------------------
D:----------------------------------------------
A:-0000-7777-55555555---------------------------
E:----------------------------------------------

[Order]
Riff 1 x 2
Riff 2 x 2
Riff 3 x 3
Riff 4 x 1
Riff 1 x 2
Riff 2 x 2
Riff 3 x 3
Riff 4 x 4
Riff 5 x 8
Riff 3 x 3
Riff 4 x 1
Riff 2 x 2
End with A:-0-


Aliens Exist
Blink 182



Intro
G:--------------------
D:--------------------
A:-22222222-4444-6666-
E:--------------------

Riff 1
G:-------------------------------------
D:-------------------------------------
A:-22222222----------------------------
E:----------22222222-44444444-00000000-

Riff 2 (Enema of the State Version)
G:-------------------------------------
D:-------------------------------------
A:-22222222-44444444-------------------
E:-------------------44444444-00000000-

Riff 2 (Live Version)
G:-------------------------------------
D:-------------------------------------
A:-22222222-44444444-66666666-77777777-
E:-------------------------------------

Riff 3
G:-----------------------------
D:-----------------------------
A:-222222----------------------
E:--------000000-444444-000000-

Riff 4
G:----------------------------
D:----------------------------
A:-22222222-------------------
E:----------22222222-44444444-

Riff 5 (Up All Night long....)
G:-----------------------------------------------------
D:-----------------------------------------------------
A:-222222222222--------------222222222222--------------
E:--------------222222222222--------------222222222222-

Riff 6 (know it must be late....)
G:-----------------------------------------------------
D:-----------------------------------------------------
A:-222222222222----------------------------------------
E:--------------000000000000-444444444444-000000000000-

Riff 7 (I'm not like you guys....)
G:------------------------------------
D:------------------------------------
A:-----------------2~-----------------
E:-2~------0~--------------2~------0~-

Riff 8 (beginning of interlude)
G:---------------------------------------------------------------------
D:---------------------------------------------------------------------
A:----------------------------------------------------2222222222222222-
E:-4444444444444444-2222222222222222-0000000000000000------------------


G:---------------------------------------------------------------------
D:---------------------------------------------------------------------
A:-6666666666666666-4444444444444444-7777777777777777-6666666666666666-
E:---------------------------------------------------------------------

Riff 9 (Dark and scary...)
G:----------------------------------------------------------------------
D:----------------------------------------------------------------------
A:----------------------------------------------------22222222----------
E:-4444444444444444-2222222222222222-0000000000000000----------22222222-


ORDER:
Intro
Riff 1 x 2
Riff 2 x 1
Riff 1 x 1
Riff 3 x 2
Riff 1 x 2
Riff 2 x 1
Riff 4 x 1
Riff 5 x 1
Riff 6 x 1
Riff 7 x 1
Riff 3 x 2
Riff 1 x 2
Riff 2 x 1
Riff 4 x 1
Riff 5 x 1
Riff 6 x 1
Riff 7 x 1
Riff 8 x 1
Riff 9 x 2
Riff 5 x 1
Riff 6 x 1
Riff 7 x 1
End With A:-2~-



FAMILY REUNION
BLINK 182

G:-------------------------------
D:-------------------------------
A:---------------4-4-4-4-5-5-5-5-
E:5-5-5-5-7-7-7-7----------------




Blink 182
Going Away To College

Guitar Intro

Bridge:
G-------------------------------------------------
D-------------------------------------------------
A-2-2-2-2-2-2-2-2-2-2-2-2-------------------------
E-------------------------0-0-0-0-0-0-2-2-2-2-2-2-

Verse:
G---------------------------------
D-----------------2-2-2-2-4-4-4-4-
A-2-2-2-2-2-2-2-2-----------------
E---------------------------------

Chorus:
G---------------------------------
D-1-1-1-1-2-2-2-2-----------------
A-----------------2-2-2-2---------
E-------------------------2-2-2-2-

G---------------------------
D-1-1-1-1-2-2-2-2-----------
A-----------------2-2-2-2---
E-------------------------2-

Solo:
G----------------------------------
D------2----2h4---------1h2----4-2-
A-2-------------2---2h4------------
E----------------------------------

Outro:
G--------
D--------
A-3------
E--------

The order of this song's pretty easy, right after he solo it goes right
back to the chorus.



Blink 182
Whats My Age Again

This is the full and correct version of What's My Age Again?

|----------------------|---------------------|----------------------|
|----------------------|---------------------|----------------------|
|----2-2-2-2----------|---4-4-4-4--6-6-6-6---|---2-2-2-2-----------|---4-4-4-4--6-6-6-6---|
|-----------2-2-2-2---|----------------------|-----------2-2-2-2---|----------------------|

I took her out, it was a Friday night, I wore cologne, to get the feeling right,
|---------------------|----------------------|---------------------|----------------------|
|---------------------|----------------------|---------------------|----------------------|
|---2-2-2-2-----------|---4-4-4-4--6-6-6-6---|---2-2-2-2-----------|---4-4-4-4--6-6-6-6---|
|-----------2-2-2-2---|----------------------|-----------2-2-2-2---|----------------------|

we started making out and she took off my pants but then i turned on TV, And
|---------------------|----------------------|---------------------|----------------------|
|---------------------|----------------------|---------------------|----------------------|
|---2-2-2-2-----------|---4-4-4-4--6-6-6-6---|---2-2-2-2-----------|---4-4-4-4--4-4-4-4---|
|-----------2-2-2-2---|----------------------|-----------2-2-2-2---|----------------------|

That's about the time she walked a - way from me. Nobody likes you when you're
|-----------------------------------|-----------------------|----------------------------|
|-----------------------------------|---4-------------------|----------------------------|
|---2---2---2---2---2---2---2---2---|--------4--4-------6---|-6-----2---2---2---2---4----|
|-----------------------------------|-----------------------|----------------------------|

Twen - ty three and are still more amused by T V shows.
|-----------------------|---------------------------------|-----------------------|
|---4-------------------|---------------------------------|---4-------------------|
|--------4--4-------6---|-6----------2---2---2---2---4----|--------4--4-------6---|
|-----------------------|---------------------------------|-----------------------|

What the Hell is A D D? My friends say I should act my age. What's My Age Again?
|----------------------------------|-----------------------------------|--------------------|
|----------------------------------|---4-------------------------------|--------------------|
|-6-----------2---2---2---2---4----|--------------4------4---------6---|--6-6-6-6--6-6-6-6--|
|----------------------------------|-----------------------------------|--------------------|

What's My Age Again?
|--------------------|---------------------|---------------------|
|--------------------|----2----------------|---------------------|
|--4-4-4-4--4-4-4-4--|----4----------------|---------------------|
|--------------------|---------------------|---------------------|

Then Later on, on the drive home, I called her mom, from a pay phone,
|---------------------|----------------------|---------------------|----------------------|
|---------------------|----------------------|---------------------|----------------------|
|---2-2-2-2-----------|---4-4-4-4--6-6-6-6---|---2-2-2-2-----------|---4-4-4-4--6-6-6-6---|
|-----------2-2-2-2---|----------------------|-----------2-2-2-2---|----------------------|

I said I was the cops, and your husband is in jail, this state looks down on so- do- my. And
|---------------------|-----------------------------|-----------------------------|----------------------|
|---------------------|-----------------------------|-----------------------------|----------------------|
|---2-2-2-2-----------|---4--4--4--4---6--6--6--6---|---2--2--2--2----------------|---4-4-4-4--4-4-4-4---|
|-----------2-2-2-2---|-----------------------------|----------------2--2--2--2---|----------------------|

thats about the time that bitch hung up on me. Nobody likes you when you're
|-----------------------------------|-----------------------|----------------------------|
|-----------------------------------|---4-------------------|----------------------------|
|---2---2---2---2---2---2---2---2---|--------4--4-------6---|-6-----2---2---2---2---4----|
|-----------------------------------|-----------------------|----------------------------|

twen - ty three and are still more amused by prank phone calls.
|-----------------------|---------------------------------|------------------------|
|---4-------------------|---------------------------------|---4--------------------|
|--------4--4-------6---|-6----------2---2---2---2---4----|--------4---4-------6---|
|-----------------------|---------------------------------|------------------------|

What the hell is Call I D My friends say I should act my age. What's My Age Again?

|----------------------------------|-----------------------------------|--------------------|
|----------------------------------|---4-------------------------------|--------------------|
|-6-----------2---2---2---2---4----|--------------4------4---------6---|--6-6-6-6--6-6-6-6--|
|----------------------------------|-----------------------------------|--------------------|

What's My Age Again? What's My Age Again?
|--------------------|---------------------|-------------------|-------------------|
|--------------------|---------------------|------8-----8---8--|------6-----6---6--|
|--4-4-4-4--4-4-4-4--|--4-4-4-4--4-4-4-4---|--6-6---6-6---6----|--4-4---4-4---4----|
|--------------------|---------------------|-------------------|-------------------|
_____Let_Ring______/

|-------------------|-------------------|-------------------|-------------------|
|------4-----4---4--|------6-----6---6--|------8-----8---8--|------6-----6---6--|
|--2-2---2-2---2----|--4-4---4-4---4----|--6-6---6-6---6----|--4-4---4-4---4----|
|-------------------|-------------------|-------------------|-------------------|
_____Let_Ring______/

And b that's about the time she walked a -
|-------------------|-------------------|-------------------|------------------------------|
|------4-----4---4--|------6-----6---6--|------4-----4---4--|----------6---------6-----6---|
|--2-2---2-2---2----|--4-4---4-4---4----|--2-2---2-2---2----|--4----4----4----4-----4------|
|-------------------|-------------------|-------------------|------------------------------|

way from me. Nobody Likes you when you're twen - ty three and you act like you're in
|-----------------------|----------------------------|-----------------------|-----------------------------|
|---4-------------------|----------------------------|---4-------------------|-----------------------------|
|--------4--4-------6---|-6-----2---2---2---2---4----|--------4--4-------6---|-6------2----2----2----2----4|
|-----------------------|----------------------------|-----------------------|-----------------------------|

freshman year. What the hell is wrong with me? My friends say I should act my age.
|-----------------------|---------------------------------------|-----------------------------------|
|---4-------------------|---------------------------------------|---4-------------------------------|
|--------4--4-------6---|-6------------2----2----2----2----4----|--------------4------4---------6---|
|-----------------------|---------------------------------------|-----------------------------------|

What's My Age Again?
|--------------------|
|--------------------|
|--6-6-6-6--6-6-6-6--|
|--------------------|

That's A-bout the time that she broke up with me. No one should take themselves so
(What's My Age A - gain? Please stay with me.
|-----------------------------------|-----------------------|-----------------------------------|
|-----------------------------------|---4-------------------|-----------------------------------|
|---4---4---4---4---4---4---4---4---|--------4--4-------6---|--6------2----2----2----2----4-----|
|-----------------------------------|-----------------------|-----------------------------------|

ser - i - us - ly. With many years a - head to fall in line,
Please stay with me. Please stay
|-----------------------|-----------------------------------|-----------------------|
|---4-------------------|-----------------------------------|---4-------------------|
|--------4---4------6---|--6------2----2----2----2----4-----|--------4---4------6---|
|-----------------------|-----------------------------------|-----------------------|

why would you wish that on me? I nev - er wan - na act my age. What's My Age Again?
with me. Please stay with me.)
|-----------------------------------|-----------------------------------|--------------------------|
|-----------------------------------|---4-------------------------------|--------------------------|
|--6------2----2----2----2----4-----|--------------4------4---------6---|--6--6--6--6--6--6--6--6--|
|-----------------------------------|-----------------------------------|--------------------------|

What's My Age Again?
|---------------------|-----------------------|-----------------------------------|
|---------------------|---4-------------------|-----------------------------------|
|--4-4-4-4--4-4-4-4---|--------4--4-------6---|--6------2----2----2----2----4-----|
|---------------------|-----------------------|-----------------------------------|

What's my age a - gain?
|-----------------------|--------------------|--------------------------|---|
|---4-------------------|--------------------|--------------------------|-4-|
|--------4--4-------6---|--6-6-6-6--6-6-6-6--|--4--4--4--4--4--4--4--4--|-2-|
|-----------------------|--------------------|--------------------------|---|


Dick Lips
Blink 182

INTRO:

G---------------------------------------------------------------------|
D---------------------------------------------------------------------|(PLAY 2 TIMES,
A-4444444444444444-5555555555555555-0000000000000000-7777777777777777-|
VERY FAST)
E---------------------------------------------------------------------|

VERSE:

G-------------------------------------|
D-------------------------------------|
A-44444444-55555555-00000000-77777777-|
E-------------------------------------|

CHORUS:

G-------------------------------------|
D-------------------------------------|
A-44444444-55555555-00000000-77777777-|
E-------------------------------------|

RIFF:

G-----------------------|
D-----------------------|
A--------5-4------5555--|
E-555555-----0000-------|




Untitled
Blink 182



Intro (play 8 times)
G:------------------------------------
D:------------------------------------
A:-22222---22222222-------------------
E:-------------------00000-22222222---

Notes Before Riff 1(play twice)
G:------------------------------
D:------------------------------
A:-2~----------2~----------2~---
E:-------0~----------2~---------

Riff 1
G:----------------------
D:----------------------
A:-22222222-------------
E:----------0000-2222---

Riff 2
G:---------------------------------------
D:---------------------------------------
A:-------------------22222222-44444444---
E:-44444444-00000000---------------------

Riff 3
G:-------------------------
D:-------------------------
A:-2-2222--222-------------
E:-------------00000-222---

Riff 4
G:---------------------
D:---------------------
A:-22222222-44444444---
E:---------------------

ORDER
Intro
Notes Before Riff 1
Riff 1 x 4
Riff 2 x 2
Riff 3 x 2
Riff 2 x 2
Riff 4 x 3
End With A:-2-


Blink 182
Voyer
intro: "the lonley guy i am i wait for her to change"

G---------------
A---------------
D-8-10-8-7------
E---------------
-
verse 1:

G------------------------------------
A-------------------------3-3-3-3----
D-3-3-3-3-3-3-3-3-0-0-0-0------------
E------------------------------------repeat 2x then play

pre chorus:

G------------------------------------------------
A-3-3-3-3-3-3-5-3-----------------------3--------
D---------------------------------33-33---33-33--
E-----------------3-3-3-3-1-1-1-1---------------3

G----------------------------------------------------------
A----------------------------------------------------------
D-----------------3-3-3-3---------------------------3-3-3-3
E-3-3-3-3-1-1-1-1---------3-3-3-3-3-3-3-3-3-1-1-1-1--------

G-------------------------------------------------------
A---------------------------------------3--------------3
D-------------------------33-33---33-33--33-33---33-33--
E-3-3-3-3-3-3-3-3-1-1-1-1-------3--------------3--------

G-------------------------------------------------------
A----------------------------3-3-3-3--------------------
D-3-3-3-3-3-3-3-3-3-0-0-0-0-----------------------------
E----------------------------------------------------- repeat 4x then play pre chorus

chorus:

G-------------------------------------
A-------------------------------------
D-3-3-3-3-8-8-8-8-10-10-10-10-8-8-8-8-
E-------------------------------------repeat 4x

verse 3:

G---------------------------------
A--------------------------3-3-3-3
D-3-3-3-3-3-3-3-3-0-0-0-0---------
E--------------------------------- repeat 4x then play pre chorus
into chorus
solo:

G----------------
A----------------
D-333-101010-888-
E ---------------repeat several times then play the end of
pre chorus(listen to the song and you'll see what i mean)

Pathetic
Blink 182


Riff #1
G---------------------------------------------------------
D-1111-1111-2222-2222-------------------------------------
A---------------------2222-2222---------------------------
E---------------------------------------------------------

Riff #2
G----------------4444-4444-2222-2222----------------------
D-2222-2222-2222------------------------------------------
A---------------------------------------------------------
E---------------------------------------------------------

Riff #3
G---------------------------------------------------------
D---------------------------------------------------------
A-----------2-----------2---------------------------------
E-4444-4444---2222-2222---0000-0000-0000-0000-------------

Order:
Riff #1-4X
Riff #2-4X
Riff #3-2X
Riff #1-4X
Riff #2-4X
Riff #3-2X
Riff #1-4X
Riff #3-2X



Intro: x2
|------------------------------------------------|
|------------------------------------------------|
|-2-----2-------0-----0--------------------------|
|--------------------------3-----3------0------3-|



Verse: x5
|-----------------------------------------------------------------|
|-----------------------------------------------------------------|
|-5-5-5-5-5-5-5-5-----------------2-2-2-2-2-2-2-2-----------------|
|-----------------3-3-3-3-3-3-3-3-----------------3-3-3-3-3-3-3-3-|

Interlude: x2
|--------------------------------------------------|
|--------------------------------------------------|
|-5----5-----7----7-----2-----2--------------------|
|-----------------------------------3------3-------|





Chorus (x2)

|---------------------------------------------------------------|
|-------------------------------------------------5-5-5-5-5-5-5-|
|-5-5-5-5-5-5-5-5--7-7-7-7-7-7-7-7------------------------------|
|----------------------------------7-7-7-7-7-7-7-7--------------|

Heavy part x2

|---------------------------------------------------------------|
|---------------------------------------------------------------|
|5-5-5-5-5-5-5-5-7-7-7-7-7-7-7-7--------------------------------|
|-------------------------------7-7-7-7-7-7-7-7-3-3-3-3-3-3-3-3-|


Intro: x2
|------------------------------------------------|
|------------------------------------------------|
|-2-----2-------0-----0--------------------------|
|--------------------------3-----3------0------3-|


Verse: x5
|-----------------------------------------------------------------|
|-----------------------------------------------------------------|
|-5-5-5-5-5-5-5-5-----------------2-2-2-2-2-2-2-2-----------------|
|-----------------3-3-3-3-3-3-3-3-----------------3-3-3-3-3-3-3-3-|



Interlude: x2
|--------------------------------------------------|
|--------------------------------------------------|
|-5----5-----7----7-----2-----2--------------------|
|-----------------------------------3------3-------|


Chorus (x2)

|---------------------------------------------------------------|
|-------------------------------------------------5-5-5-5-5-5-5-|
|-5-5-5-5-5-5-5-5--7-7-7-7-7-7-7-7------------------------------|
|----------------------------------7-7-7-7-7-7-7-7--------------|

Heavy part x2

|---------------------------------------------------------------|
|---------------------------------------------------------------|
|5-5-5-5-5-5-5-5-7-7-7-7-7-7-7-7--------------------------------|
|-------------------------------7-7-7-7-7-7-7-7-3-3-3-3-3-3-3-3-|


interlude2: x3

|---------------------------------------------------------------------|
|-----7-----7-----7-----7-----7~~-----9-----------9-----5-----------5-|
|-5-5---5-5---5-5---5-5---5-5-----7-7---7-----7-----3-3---3------3----|
|---------------------------------------------------------------------|

|-----------------------------------------------------------------|
|-----7-----7-----7-----7-----7~~-----9---------9-------11------5-|
|-5-5---5-5---5-5---5-5---5-5-----7-7---7-----7-----9-9-----3-3---|
|-----------------------------------------------------------------|




Heavy part x5

|---------------------------------------------------------------|
|---------------------------------------------------------------|
|5-5-5-5-5-5-5-5-7-7-7-7-7-7-7-7--------------------------------|
|-------------------------------7-7-7-7-7-7-7-7-3-3-3-3-3-3-3-3-|



Peggy Sue
blink 182


Intro
g----------------------------------------------------------------
d----------------------------------------------------------------
a---------55555555----------77777777-55555555--------------------
e-55555555--------55555555--------------------5555555555555555---

Verse
g----------------------------------------------------------------
d----------------------------------------------------------------
a----------------------------------------------------------------
e-55555555-22222222-55555555-0020--------------------------------

Chorus
g----------------------------------------------------------------
d----------------------------------------------------------------
a-55555555---------10-10-10-10-10-10-10-10-9999-7777-------------
e---------55555555-----------------------------------------------

Bridge 1
g----------------------------------------------------------------
d----------------------------------------------------------------
a----------------------------------------------------------------
e-55555555-0000-10-10-10-12-12-----------------------------------

Bridge 2
g----------------------------------------------------------------
d----------------------------------------------------------------
a----------7777--------------------------------------------------
e-55555555------10-10-10-12-12-----------------------------------


Wendy Clear
Blink182


Riff #1
G:---------------------------------------------------------
D:----3--5—-3----------------------------------------------
A:-3-------------------------------------------------------
E:---------------------------------------------------------

Riff #2
G:---------------------------------------------------------
D:---------------------------------------------------------
A:-3--------------0000-------------------------------------
E:-----3-11111111------1111--------------------------------

Riff #3
G:---------------------------------------------------------
D:---------------------------------------------------------
A:-3-------------------------------------------------------
E:----3333-1111--------------------------------------------

Riff #4
G:---------------------------------------------------------
D:---------------------------------------------------------
A:------3333------3333-------------------------------------
E:-1111------3333------1111--------------------------------

Riff #5
G:---------------------------------------------------------
D:---------------------------------------------------------
A:-----3-3-----3-3-----------------------------------------
E:-1-1-----3-3-----1111------------------------------------

Riff #6
G:---------------------------------------------------------
D:---------------------------------------------------------
A:-3333333333333333----------------------------------------
E:---------------------------------------------------------

Riff #7
G:---------------------------------------------------------
D:---------------------------------------------------------
A:-3-------3-----------------------------------------------
E:----3--1-------------------------------------------------

ORDER
Riff 1 x 1
Riff 2 x 2
Riff 3 x 2
Riff 4 x 1
Riff 1 x 1
Riff 2 x 2
Riff 3 x 2
Riff 4 x 1
Riff 6 x 1
Riff 5 x 1
Riff 6 x 1
Riff 5 x 1
Riff 1 x 1
Riff 6 x 1
No Bass Guitar for this bit
Riff 3 x 2
Riff 7 x 1




Blink 182
Carousel

INTRO:

G----11-11-12-14-12-11---|---6-6-7-9-7-6---|---9-9-11-12-11-9-7--|-7-7-7-7-7-7-7-7--|
D-12-------------------12|-7-------------7-|-9-------------------|-5-5-5-5-5-5-5-5--|
A------------------------|-----------------|---------------------|------------------|
E------------------------|-----------------|---------------------|------------------|

G----11-11-12-14-12-11---|---6-6-7-9-7-6---|---9-9-11-12-12-11-11|-7-7-7-7-7-7-7-7--|
D-12-------------------12|-7-------------7-|-9-------------------|-5-5-5-5-5-5-5-5--|
A------------------------|-----------------|---------------------|------------------|
E------------------------|-----------------|---------------------|------------------|

PRE VERSE:

G-11-11-11-11-11--9-9-9-9-9--11-11-11-11-11--7-7-7-7-7-|
D-0--0--0--0--0---7-7-7-7-7--9--9--9--9--9---5-5-5-5-5-|
A------------------------------------------------------|
E------------------------------------------------------|

VERSE:

G---------------------------------------|
D---------------------------------------|
A-55555555----------22222222------------|
E----------55555555----------33333333---|

CHORUS:

G---------------------------------------|
D---------------------------------------|
A-55555555----------22222222------------|
E----------55555555----------33333333---|



All The Small Things
Blink 182

intro:
x1 x2
[--------------]-[--------------------------------------------------------------------------------]
[--------------]-[----------------------3-3-3-3-3-3-3-3-------------------------------------------]
[--------------]-[-3-3-3-3-3-3-3-3---------------------------------------------0-0-0-0------------]
[-3-1----------]-[------------------------------------------3-3-3-3-3-3-3-3-3------------1-1-1----]

Verse:
x4 Pre-chorus:x1
[---------------------------------------------------------------------------]-[-------------]
[---------------------------------------------------------------------------]-[-------------]
[-3-3-3-3-3-3-3-3-----------------------------------------------------------]-[--3~let ring~]
[-----------------------3-3-3-3-3-3-3-3---1-1-1-1-1-1-1-1---3-3-3-3-3-3-3-3-]-[-------------]

Chorus:
x2
[-----------------------------------------------------------------------------------------------]
[-----------------------------------------------------------------------------------------------]
[--3-3-3-3-3-3-3-3-3-3-3-3-3-3-3-3--------------------------------------------------------------]
[------------------------------------------3-3-3-3-3-3-3-3----1-1-1-1-1-1-1-1-------------------]




Interlude:
x2
[------------------------------------------------------------------------------------------------]
[------------------------------------------------------------------------------------------------]
[-3-3-3-3-3-3-3-3----8-8-8-8----7-7-7-7----5-5-5-5-5-5-5-5-5----0-0-0-0----3-3-3-----------------]
[------------------------------------------------------------------------------------------------]

Verse:
x2 Pre-chorus:x1
[---------------------------------------------------------------------------]-[------------------]
[---------------------------------------------------------------------------]-[------------------]
[-3-3-3-3-3-3-3-3-----------------------------------------------------------]-[--3-let ring~]
[-----------------------3-3-3-3-3-3-3-3---1-1-1-1-1-1-1-1---3-3-3-3-3-3-3-3-]-[------------------]

Chorus:
x2
[--------------------------------------------------------------------------------------------]
[--------------------------------------------------------------------------------------------]
[--3-3-3-3-3-3-3-3-3-3-3-3-3-3-3-3-----------------------------------------------------------]
[------------------------------------------3-3-3-3-3-3-3-3----1-1-1-1-1-1-1-1----------------]
Interlude:
x4
[--------------------------------------------------------------------------]
[--------------------------------------------------------------------------]
[-3 let ring~---------------3 let ring~-----------------5 let ring~--------]
[--------------------------------------------------------------------------]

x1
[--------------------------------------------------------------------------]
[--------------------------------------------------------------------------]
[-3-3-3-3-3-3-3-3----------------------------------------------------------]
[------------------------3-3-3-3-3-3-3-3----1-1-1-1-1-1-1-1---3-3-3-3-3-3--]

Chorus:
x2
[----------------------------------------------------------------------------------------]
[----------------------------------------------------------------------------------------]
[--3-3-3-3-3-3-3-3-3-3-3-3-3-3-3-3-------------------------------------------------------]
[------------------------------------------3-3-3-3-3-3-3-3----1-1-1-1-1-1-1-1------------]


x1
[----------------------------------------------------------------------------------]
[----------------------------------------------------------------------------------]
[--3-3-3-3-3-3-3-3-3-3-3-3-3-3-3-3-------------------------------------------------]
[------------------------------------------3-3-3-3-3-3-3-3-------------------------]

x1
[-------------------------------------------------------------------------------------]
[-------------------------------------------------------------------------------------]
[----------------------------------------------------3-3-3-3-3-3-3-3-3-3-3-3-3-3-3-3--]
[-1-1--1-(hit hard)----1-1--1-(hit hard)----------------------------------------------]

End
x1
[----------------------------------------------------------------------------------------------]
[----------------------------------------------------------------------------------------------]
[-----------------------------------------------------------------------------------3-Let ring~]
[--3-3-3-3-3-3-3-3----1-1--1-(hh)----1-1--1-(hh)----1-1--1-(hh)---1-1--1-(hh)------------------]

MUTT - Blink182



Bass Intro
G|-------9------9------9------9------9------9------9------9-----
D|--7-7----7-7----7-7----7-7----7-7----7-7----7-7----7-7---------
A|--------------------------------------------------------------
E|---------------------------------------------------------------
cont.
G|-------2------2------2------2-----2-------2------2-------2----|
D|--0-0----0-0----0-0----0-0----0-0----0-0----0-0----0-0-------|
A|-------------------------------------------------------------|
E|------------------------------------------------------------|
Intro 2
G|------------------------------------
D|-------------------------------------
A|--0>-0>-0>-222-444-5>-5>-5>-999-777--
E|----------------------------------
Verse part1
G|----------------------------------------------------|
D|------------------------------------------------|
A|------------------------------------------------|
E|-555-555-555-555-222-222-000-000------------------

Verse part2
G|--------------------------------------------------|
D|---------------------------------------------------|
A|----------|
E|-5>-5>-2>-0>--------------------------------------|
pre chorus (oh yeah...)
A:-5>-5>-7>-7>--------------

Chorus riff
G|----------------------------------------------------------------|
D|---------------------------------------------------------------|
A|------7/9-7------7/9-7------999-555-777-------------------------|
E|--5-5-------5-5---------777----------------------------------|

bridge
G|------------------------------------------------------------|
D|-----------------------------------------------------------|
A|---------------------5-5--4-4-----------------------------|
E|---5-5--------7-7-----------------------------------------|
Ending
G|---------------------------------------------------------|
D|---------------------------------------------------------|
A|-------------------5---4----------------5--4-------------|
E|---5---------7--------------5------7----------5---------|

order:
intro x 1
intro2 x 2
verse_1 x 2
verse_2 x 2
prechorus x 1
chorus x 6
intro2 x 2
verse_1 x 2
verse_2 x 2
prechorus x 1
chorus x 6
bridge x 2
intro2 x 1
chorus x 4
ending x 1


Blink 182
The Country Song

G--------------------------
D--------------------------
A-3-3-3-3-0-2-3-3-3-3-0-2-3
E--3-3-3-3-----3-3-3-3-----


Song:Dammit
Blink 182






Riff 1 (bridge & verse)
G:-------------------------------------
D:-------------------------------------
A:-33333333----------------------------
E:----------33333333-55555555-11111111-

Riff 2 (Chorus)
G:---------------------------------------------------------------------
D:---------------------------------------------------------------------
A:-3333333333333333----------------------------------------------------
E:------------------3333333333333333-5555555555555555-1111111111111111-

G:----------------------------------------------------------------------
D:----------------------------------------------------------------------
A:-3333333333333333-----------------------------------------------------
E:------------------3333333333333333-5555555555555555-11111111-33333333-

Riff 3 (Interlude)
G:----------------------------------
D:----------------------------------
A:-3~-------/5~-------/7~-------/8~-
E:----------------------------------

*ORDER*
-------
(guitar intro)
Riff 1 x 12
Riff 2 x 1
Riff 1 x 6
Riff 2 x 1
Riff 3 x 2
Riff 3 x 4
End with A:-3~-




Man Overboard
Blink 182


intro
G---------7---5--4---------7---5---4---------7---5----4---5---4---5---4--
D----5-5---5---5--5-5-5---5---5---5-5-5----5---5----5---5---5---5-----
A-----------------------------------------------------------------------------------
E-----------------------------------------------------------------------


Intro part 2 do the same thing (so sorry its over)



G----------------------------------------------------------------------------------------
D----------------------------------------------------------------------------------------
A----------------------------------------------------------------------3-3-3-3-3-3-3-3
E--3-3-3-3-3-3-3-3-3-3-3-3-3-3-3---0-0-0-0-0-0-0-0------------------------


G--------------------------------------------------------------------------------
D--------------------------------------------------------------------------------
A-----------------5-5-5--------------------3-3--------------------------------
E--3-3-3-333-----------0-0-0-0000---------------------------------------




G----------------------------------------------------------------------------
D--5-5-5-5-5-5-5-5------7-7-7-7-7-7-7-7---------------------------
A-----------------------------------------------------3-3-3-3-3-3-3-3---
E-----------------------------------------------------------------------------


this is the whole mark tom and travis show some songs are missing and some are probably
wrong but o well

Taken from The BassMasta -- http://www.tabs-database.com



Get this song at amazon.com      Ebay     Ringtones Ringtones  


Learn to play: Songwriting, Piano, Harmonica, Guitar
Also available at Muzikum: Blink 182 - Mark Tom And Travis Show lyrics

Related Blink 182 Bass Tabs

Apple Shampoo bass
I'm Lost Without You bass
Hold On bass
Depends bass
Time bass
Dick Lips bass
Easy Target bass
Dont bass
Wirecked Him bass
Carousel Buddha bass
This Is Home bass
The Party Song bass
Lemmings bass
Happy Holidays U B****** bass
Whats My Age Again.....correct bass
Reebok Commercial bass
I Miss You (new Complete Version) bass
Buddha Full Album - Bass Tab bass
Fentoozler bass
Easy Target 100% bass


Guitar Tabs









All tabs are property and copyright of their owners. All tabs provided for educational purposes only. Privacy Policy, DMCA

Online converter - videoconverter.com