Blink 182

Man Overboard Tabs



More from Blink 182

Blink 182 Tabs
Blink 182 Chords
Blink 182 Bass
Blink 182 Lyrics

tabs-database.com[http://www.tabs-database.com.com/]
“Standard Tuning” I hope youA all like this song as mush as me it’s a great one by these guys.



INTRO (BASS)

|------------------------------------------------------

|------------------------------------------------------

|----------------------------------------------------- Bass line but you can play it to.

|----------------------------------------------------- 2x

|-----5-3-2---5-3-2----5-3-2-3-2-3-2-3-2------

|--33-------33-------33----------------------------



INTRO (GUITAR)

|------------------------------------------

|------------------------------------------

|-------------------5~-----(7)---------- Play 4x

|--5~-----7~--------5~-----(7)----------

|--5~-----7~--------3~-----(5)---------- End on the “D” chord

|--3~-----5~-----------------------------



Main Riff 1

|------------------------------------------------------

|------------------------------------------------------

|-----------------------------------------------------

|----------------------------------------------------- Play 2x

|---0-2-3-2--0-2-3-2-0---0-2-3-2--0-2-3-2-0----

|--3------------------------0--------------------------



Main Riff 2

|----------------------------------------------------------

|-----------------------------------------------------------

|---------------------------------------------------------- Play 4x

|--55-----0~-0-0-2-0------------------------------------

|-----2h3--------------3----------------------------------

|---------------------------------------------------------



Verse 1

|--------------------------------------

|----------------------------------------

|------------------------------55555555------ Play 2x

|--5555555555555555--22222222--55555555-----

|--5555555555555555--22222222--33333333------

|--3333333333333333--00000000--------------------

**************** ******** *********



Chorus

|----------------------------------------------------------

|---------------------------------------------------------

|--------7777--------3333----------------------------

|--5--5--7777--2--2--3333----------------------------- Play 2x

|--5--5--5555--2--2--3333---------------------------

|--3--3--------0--0-----------------------------------



Verse 2

|---------------------------------------------------------

|----------------------------------------------------------

|----------------------------------------------------------

|------5----5----5-----5-----5----5-----5----5-------- Play 2x

|--------------------------------------33---33-----------

|--33---33--33---33----00---00-----------------------

** ** ** ** ** ** ** **



Ending

|-----------------------------------------------

|------------------------------------------------

|------------55555555------------55555555----------

|--55555555--55555555--55557777--55555555----------

|--55555555--33333333--55557777--33333333------------

|--33333333------------33335555-------------------------



|---------------------------------------------

|------------------------------------------------

|------------55555555------------55557777-----------

|--55555555--55555555--55557777--55557777----5~----

|--55555555--33333333--55557777--33335555----5~---

|--33333333------------33335555--------------3~----



Order



Intro

Main Riff 1

Main Riff 2

Verse 1

Chorus

Main Riff 1

Verse 2

Intro

Main Riff 1

Main Riff 2

Ending
Added by tabs-database.com and our distinguished partners
Get this song at amazon.com      Ebay     Ringtones Ringtones  


Learn to play: Songwriting, Piano, Harmonica, Guitar
Also available at Muzikum: Blink 182 - Man Overboard lyrics

Related Blink 182 Tabs

Man Overboard tabs
Grandpa Intro tabs
Anthem tabs
Country Song tabs
Grandpa tabs
Cereal tabs
21 Days Intro tabs
Secret Track tabs
Dysentery Gary Intro tabs
Blink 182 Album tabs
Peggy Sue Live Solo tabs
Dicklips tabs
The Party Song tabs
Adams Song Live3 tabs
Party Song tabs
Family Reunion tabs
Dammit Solo tabs
Toms Song tabs
Mothers Day tabs
Im Kicking tabs


Guitar Tabs









All tabs are property and copyright of their owners. All tabs provided for educational purposes only. Privacy Policy, DMCA

Online converter - videoconverter.com