Blink 182

Man Overboard(right) Tabs



More from Blink 182

Blink 182 Tabs
Blink 182 Chords
Blink 182 Bass
Blink 182 Lyrics




e|------------------------------------|| wait for the bass to repeat twice
B|------------------------------------|| then play along
G|------------------------------------||
D|------------------------------------||
A|-------------------3333333333333333-||
E|-33333333-55555555------------------|| intro x4(also outro)

e|---------------------------------------||
B|---------------------------------------||
G|---------------------------------------||
D|---------------------------------------||
A|----2-3-2-0-2-3-2-0----2-3-2-0-2-3-2-0-||
E|-33-----------------00-----------------|| post intro x2

e|--------------------||
B|--------------------||
G|--------------------||
D|-55-----------------||
A|----5-7-5---5-7-5---||
E|----------8-------8-|| post introII x4

e|----------------------------||
B|----------------------------||
G|---------------------555555-||
D|-555555555555-222222-555555-||
A|-555555555555-222222-333333-||
E|-333333333333-000000--------|| verse(is palm muted) x2

e|---------------------------||
B|---------------------------||
G|-------777777-99999-555555-||
D|-55555-777777-99999-555555-||
A|-55555-555555-77777-333333-||
E|-33333---------------------|| chorus x2

e|----------||
B|----------||
G|----------||
D|----------||
A|-------3~-||
E|-3~-5~----|| bridge x4

order:intro,post intro,post introII,verse,chorus,post intro,
verse,chorus,bridge,post intro,post introII,outro.

enjoy.



Get this song at amazon.com      Ebay     Ringtones Ringtones  


Learn to play: Songwriting, Piano, Harmonica, Guitar
More Blink 182 lyrics available at Muzikum

Related Blink 182 Tabs

Blew Job tabs
Dont tabs
Mother's Day tabs
Macca Is Gay tabs
Untitled Live tabs
Shut Up tabs
Anthem Part Two Live tabs
Pathetic Intro tabs
Go tabs
Dammit Interlude tabs
Party Song tabs
Dammit (intro) tabs
Degenerate tabs
Obvious tabs
Feeling This Live tabs
Zulu tabs
The Country Song Solo tabs
Angellica And Me tabs
Cacophony tabs
Girl Next Door tabs


Guitar Tabs









All tabs are property and copyright of their owners. All tabs provided for educational purposes only. Privacy Policy, DMCA