Blink 182

Man Overboard Bass Tabs



More from Blink 182

Blink 182 Tabs
Blink 182 Chords
Blink 182 Bass
Blink 182 Lyrics

Date: Mon, 10 Mar 2003 20:43:28 -0800
From: mikefta@juno.com
Subject: b/blink_182/man_overboard.btab

BASS TAB
Title :Man Overboard
Artist :Blink-182
Album :The Mark Tom and Travis Show
Transcribed by Michael Felmey (mikefta@Juno.com)
All My Own Work
4/4
Intro:
Hoppus plays with a pick on this song, so that's what I gonna do.
Intro 4x
G|0-0-7p0--5p0-4p0--0-0-7p0--5p0-4p0--0-0-7p0--5p0-4p0-5p0-4p0-5p0-4p0|G
D|--------------------------------------------------------------------|D
A|--------------------------------------------------------------------|A
E|--------------------------------------------------------------------|E
"So sorry, it's over"
Riff 1 2x
G|------------------------------------------|G
D|------------------------------------------|D
A|-----------------------3-3-3-3-3-2--------|A
E|3-3-3-3-3-3--0-0-0-0-0--------------------|E
Then this 2x :
G|------------------------------------------|G
D|5-5-5-5-5s--0-0-0-0-0--2-2-2-2-2---------|D
A|--------------------------------3-3-3-3-3-|A
E|------------------------------------------|E
Verse 1 is the same as Riff 1
"Let's take some time, to talk this over"
Chorus 2x :
G|----------------------------------------------|G
D|----------------------------------------------|D
A|------------5-5-5-5-5-----------3-3-3-3-3-2---|A
E|3-3-3-3-3-3-----------0-0-0-0-0---------------|E
(Chorus)
"You can only lean on me for so long"
(First part of Riff 1 2x)
Verse 2 is the same as Riff 1
"I remember shots without a chaser"
 
--------
Chorus
--------
All of Riff 1
--------
Interlude
(4x)
G|-------|G
D|-------|D
A|-------|A
E|3-/5-/8|E
--------
All of Riff 1
--------
Ending is the same as intro except it ends on a whole note :
E|-3-|E

Yeah later
See you around - mikefta@juno.com
Get this song at amazon.com      Ebay     Ringtones Ringtones  


Learn to play: Songwriting, Piano, Harmonica, Guitar
Also available at Muzikum: Blink 182 - Man Overboard lyrics

Related Blink 182 Bass Tabs

Always bass
Sometimes bass
Penetrated bass
Alone bass
Instrumental bass
Peggy Sue Live bass
A New Hope bass
I Won't Be Home For Christmas bass
Carousel Budha bass
The Country Song (my Other One Disapeared) bass
I Know A Guy bass
Strings bass
Hold On bass
Pathetic Live bass
Take Off Your Pants And Jacket - Bass Tab bass
All The Small Things(corrected) bass
Stay Together 4 The Kids bass
Josie! 100% Correct bass
The Longest Line bass
Toast And Bananas bass


Guitar Tabs









All tabs are property and copyright of their owners. All tabs provided for educational purposes only. Privacy Policy, DMCA