Blink 182

Man Overboard Intro(easy Way) Bass Tabs



More from Blink 182

Blink 182 Tabs
Blink 182 Chords
Blink 182 Bass
Blink 182 Lyrics




I dont no for shure if this is right but it sounds good and its easy
to do.
Its just the intro but thats the hardest part anyways lol.
~ring
G--00--0--0-000--0--0-000--0--0-0--0-0--0----------------
D----12-10-9---12-10-9---12-10-9-10-9-10-9---------------
A--------------------------------------------------------
E-------------------------------------------------------- X5

G--00--0--0-000--0--0-000--0--0-0--0-0--0----------------
D----12-10-9---12-10-9---12-10-9-10-9-10-9~--------------
A--------------------------------------------------------
E--------------------------------------------------------



Get this song at amazon.com      Ebay     Ringtones Ringtones  


Learn to play: Songwriting, Piano, Harmonica, Guitar
More Blink 182 lyrics available at Muzikum

Related Blink 182 Bass Tabs

Aliens Exist bass
D***it bass
All The Small Things (beginners) bass
Adam's Song Real Ver bass
Blew Job bass
Rich Lips bass
Satan Tune bass
Strings bass
All Teh Small Things bass
Time To Wake Up bass
Josie (with Lyrics) bass
Verse For Cacophony bass
Give Me One Good Reason bass
Blowjob Song bass
Adams Song (correct) bass
Peggy Sue Live bass
After Midnight Live bass
Instrumental bass
Im Sorry bass
Fallen Interlude bass


Guitar Tabs









All tabs are property and copyright of their owners. All tabs provided for educational purposes only. Privacy Policy, DMCA