Blink 182

Man Overboard ( From The Tab Book) Bass Tabs



More from Blink 182

Blink 182 Tabs
Blink 182 Chords
Blink 182 Bass
Blink 182 Lyrics




Hey, I got this from the book so I am absolutely positive that
this is correct. So rate it 5.

Standard Tuning

Intro: Rest of Inrto:
G:------7---5---4------------| G:--5---4---5---4----|
D:--5-5---5---5---5----------| D:----5---5---5---5--|
A:---------------------------| 3X A:-------------------| 1X
E:---------------------------| E:-------------------|

**WHOLE INTRO** 5X

End of Intro:
G:------7---5---4------|--2~-------------|
D:--5-5---5---5---5----|--0~-------------|
A:---------------------|-----------------| 1X
E:---------------------|-----------------|

Verse:
G:---------------------------------------------------------------------|
D:---------------------------------------------------------------------|
A:--------------------------------------------------3-3-3-3-3-3-3-5-5--| 2X
E:--3-3-3-3-3-3-3-3-3-3-3-3-3-3-5-5-0-0-0-0-0-0-0-0--------------------|

Verse 2:
G:------------------------------------------------------------------------------|
D:------------------------------------------------------------------------------|
A:------------------------------------------------------------------------------| 2X
E:--/10-10-10-10-10-10-10-10-\5-5-5-5-5-5-5-5-7-7-7-7-7-7-7-7-3-3-3-3-3-3-3-3/--|

**VERSE** 2X
**VERSE 2** 2X
**VERSE** 4X
**VERSE 2** 2X

Bridge:
G:---------------------------------------------------------------------|
D:---------------------------------------------------------------------|
A:---------------------------------------------5------5------5------5--| 3X
E:--10-10-10--10-10-10-12-12-12--12-12-12-\3-3-3--3-3-3--3-3-3--3-3-3--|

G:----------------------------------------------------------|
D:----------------------------------------------------------|
A:---------------------------------------------5------5--7--| 1X
E:--10-10-10--10-10-10-12-12-12--12-12-12-\3-3-3--3-3-3--5--|

**VERSE** 2X
**VERSE 2** 2X

**INTRO** 3X

Ending:
G:--5----------------|
D:----5-5-5-5-7-7-7--|
A:-------------------| 1X
E:-------------------|

**INTRO** 1X

Ending 2:
G:--------------------|
D:--7-7-7-7-7-7-7-----|
A:--------------------|
E:----------------3~--|



Get this song at amazon.com      Ebay     Ringtones Ringtones  


Learn to play: Songwriting, Piano, Harmonica, Guitar
More Blink 182 lyrics available at Muzikum

Related Blink 182 Bass Tabs

Whats My Age Again.....correct bass
Online Song bass
Carousel - Blink 182 bass
Adams Song bass
The Whole 'blink 182' Album bass
Whats My Age Agian bass
The Party Song bass
Down bass
All The Small Things (beginners) bass
Family Reunion(live) bass
Here\'s Your Letter bass
Happy Holidays You Bastard bass
Blew Job bass
Everytime I Look For You bass
Cacophony bass
Reebok Commercial bass
Anthem Part Two bass
I Miss You (new Complete Version) bass
Dumpweed bass
Girl Next Door bass


Guitar Tabs









All tabs are property and copyright of their owners. All tabs provided for educational purposes only. Privacy Policy, DMCA