Blink 182

MH 4.18.2011 Bass Tabs



More from Blink 182

Blink 182 Tabs
Blink 182 Chords
Blink 182 Bass
Blink 182 Lyrics

INTRO

G |----------------------------------------------------------|
D |----------------------------------------------------------|
A |--0---7---9-----0---7---9----0---7---9---0---7---9--------|
E |----------------------------------------------------------|

END ON

G |--------------------------------------------------|
D |--------------------------------------------------|
A |---7---7---7---7----------------------------------|
E |--------------------------------------------------|

VERSE

G |------------------------------------------------------------------------|
D |------------------------------------------------------------------------|
A |---7---0---7---0---7---0---7---0-----2---4--0---2---4---0---------------|
E |-------------------------------------------------------------------4----|

CHORUS
*SAME AS INTRO


BRIDGE

G |-------------------------------------------------|
D |-------------------------------------------------|
A |-------------------------------------------------|
E |---5---4---5---9--7-----5--5--5--5---------------|
Get this song at amazon.com      Ebay     Ringtones Ringtones  


Learn to play: Songwriting, Piano, Harmonica, Guitar
More Blink 182 lyrics available at Muzikum

Related Blink 182 Bass Tabs

Shut Up bass
Asthenia(perfect) bass
All Of This bass
Lemmings bass
Josie! 100% Correct bass
Whats My Age Again bass
I Miss You (new Complete Version) bass
Girl Next Door bass
Happy Holidays You Bastard bass
Love Is Dangerous bass
Album bass
Obvious bass
Tv bass
Carousel Live bass
M + Ms 1000% bass
T V bass
Carousel Budha bass
Longest Line bass
Voyer bass
Time bass


Guitar Tabs









All tabs are property and copyright of their owners. All tabs provided for educational purposes only. Privacy Policy, DMCA