Blink 182

M&ms Tabs



More from Blink 182

Blink 182 Tabs
Blink 182 Chords
Blink 182 Bass
Blink 182 Lyrics



Title: M&Ms
Artist: Blink 182
Instrument: Guitar


Tuning: Standard (E A D G B E)

This is the only correct tab on the internet i swear on it

o=palm mute

Intro

E|0-4p0-0-5p0-0-7p0-5-4-5p4p0-2p0-0-4p0-0-5p0-4p0-2p0-0-0------------||
B|-------------------------------------------------------------------||
G|-------------------------------------------------------------------||
D|-------------------------------------------------------------------||
A|-------------------------------------------------------------------||
E|-------------------------------------------------------------------||

E|0-4p0-0-5p0-0-7p0-5-4-5p4p0-2p0-0-4p0-0-2p0-4p0-2p0-0-0------------||
B|-------------------------------------------------------------------||
G|-------------------------------------------------------------------||
D|-------------------------------------------------------------------||
A|-------------------------------------------------------------------||
E|-------------------------------------------------------------------||


E|0-4p0-0-5p0-0-7p0-5-4-5p4p0-2p0-0-4p0-0-5p0-4p0-2p0-0-0------------||
B|-------------------------------------------------------------------||
G|-------------------------------------------------------------------||
D|-------------------------------------------------------------------||
A|-------------------------------------------------------------------||
E|-------------------------------------------------------------------||

E|0-4p0-0-5p0-0-7p0-5-4-5p4p0-2p0-0-4p0-0-2p0-4p0-2p0-0-0------------||
B|-------------------------------------------------------------------||
G|-------------------------------------------------------------------||
D|-------------------------------------------------------------------||
A|-------------------------------------------------------------------||
E|-------------------------------------------------------------------||

Verse
E|-------------------------------------------------------------------||
B|-------------------------------------------------------------------||
G|---9-----9-----9-----9-----9-----9-----9-----9-----9-------9------9||
D|------------------------------------------------6------6------6----||
A|7-----7-----7-----7-----9-----9-----9-----9------------------------||
E|-------------------------------------------------------------------||
o o o o o o o o o o o o o o o o o o o o o o
E|-------------------------------------------------------------------||
B|-------------------------------------------------------------------||
G|---9-----9-----9-----9-----9---------------------------------------||
D|6-----7-----7-----7-----7------------------------------------------||
A|-------------------------------------------------------------------||
E|-------------------------------------------------------------------||
o o o o o o o o o o
^^ 2 times... then:

E|-------------------------------------------------------------------||
B|-------------------------------------------------------------------||
G|99999999999999999999999999999999------------------99999999999999999||
D|99999999999999999999999999999999------------------99999999999999999||
A|77777777777777777777777777777777---9--7--9--7--6--77777777777777777||
E|-------------------------------------------------------------------||

E|-------------------------------------------------------------------||
B|-------------------------------------------------------------------||
G|999999999999999----------------------------------------------------||
D|999999999999999----------------------------------------------------||
A|777777777777777--9--7--9--7--6-------------------------------------||
E|-------------------------------------------------------------------||

E|-------------------------------------------------------------------||
B|-------------------------------------------------------------------||
G|-----2222------4444------2222------4444------2222------4444--------||
D|4444-2222-2222-4444-4444-2222-2222-4444-4444-2222-2222-4444-4444---||
A|4444-0000-2222-2222-4444-0000-2222-2222-4444-0000-2222-2222-4444---||
E|2222------0000------2222------0000------2222------0000------2222---||

E|-------------------------------------------------------------------||
B|-------------------------------------------------------------------||
G|2222------4--------------------------------------------------------||
D|2222------4--------------------------------------------------------||
A|0000-2222-2--------------------------------------------------------||
E|-----0000----------------------------------------------------------||

then, do this again:

E|0-4p0-0-5p0-0-7p0-5-4-5p4p0-2p0-0-4p0-0-5p0-4p0-2p0-0-0------------||
B|-------------------------------------------------------------------||
G|-------------------------------------------------------------------||
D|-------------------------------------------------------------------||
A|-------------------------------------------------------------------||
E|-------------------------------------------------------------------||

E|0-4p0-0-5p0-0-7p0-5-4-5p4p0-2p0-0-4p0-0-2p0-4p0-2p0-0-0------------||
B|-------------------------------------------------------------------||
G|-------------------------------------------------------------------||
D|-------------------------------------------------------------------||
A|-------------------------------------------------------------------||
E|-------------------------------------------------------------------||


E|0-4p0-0-5p0-0-7p0-5-4-5p4p0-2p0-0-4p0-0-5p0-4p0-2p0-0-0------------||
B|-------------------------------------------------------------------||
G|-------------------------------------------------------------------||
D|-------------------------------------------------------------------||
A|-------------------------------------------------------------------||
E|-------------------------------------------------------------------||

E|0-4p0-0-5p0-0-7p0-5-4-5p4p0-2p0-0-4p0-0-2p0-4p0-2p0-0-0------------||
B|-------------------------------------------------------------------||
G|-------------------------------------------------------------------||
D|-------------------------------------------------------------------||
A|-------------------------------------------------------------------||
E|-------------------------------------------------------------------||

then this again:

Verse
E|-------------------------------------------------------------------||
B|-------------------------------------------------------------------||
G|---9-----9-----9-----9-----9-----9-----9-----9-----9-------9------9||
D|------------------------------------------------6------6------6----||
A|7-----7-----7-----7-----9-----9-----9-----9------------------------||
E|-------------------------------------------------------------------||
o o o o o o o o o o o o o o o o o o o o o o
E|-------------------------------------------------------------------||
B|-------------------------------------------------------------------||
G|---9-----9-----9-----9-----9---------------------------------------||
D|6-----7-----7-----7-----7------------------------------------------||
A|-------------------------------------------------------------------||
E|-------------------------------------------------------------------||
o o o o o o o o o o
^^ 2 times... then:

E|-------------------------------------------------------------------||
B|-------------------------------------------------------------------||
G|99999999999999999999999999999999------------------99999999999999999||
D|99999999999999999999999999999999------------------99999999999999999||
A|77777777777777777777777777777777---9--7--9--7--6--77777777777777777||
E|-------------------------------------------------------------------||

E|-------------------------------------------------------------------||
B|-------------------------------------------------------------------||
G|999999999999999----------------------------------------------------||
D|999999999999999----------------------------------------------------||
A|777777777777777--9--7--9--7--6-------------------------------------||
E|-------------------------------------------------------------------||

E|-------------------------------------------------------------------||
B|-------------------------------------------------------------------||
G|-----2222------4444------2222------4444------2222------4444--------||
D|4444-2222-2222-4444-4444-2222-2222-4444-4444-2222-2222-4444-4444---||
A|4444-0000-2222-2222-4444-0000-2222-2222-4444-0000-2222-2222-4444---||
E|2222------0000------2222------0000------2222------0000------2222---||

E|-------------------------------------------------------------------||
B|-------------------------------------------------------------------||
G|2222------4444-----------------------------------------------------||
D|2222------4444-----------------------------------------------------||
A|0000-2222-2222-----------------------------------------------------||
E|-----0000----------------------------------------------------------||

then

E|-------------------------------------------------------------------||
B|-------------------------------------------------------------------||
G|9----9-----------------------9---9---------------------------------||
D|9----9---9---9-/-11--11/-7---9---9---9---9-/-11--11-/7-------------||
A|7----7---9---9-/-11--11/-7---7---7---9---9-/-11--11/-7-------------||
E|---------7---7-/-9---9-/-5-----------7---7-/-9---9-/-5-------------||

E|-------------------------------------------------------------------||
B|-------------------------------------------------------------------||
G|9999999999999999999999999999999999999999999999999999999999999999999||
D|9999999999999999999999999999999999999999999999999999999999999999999||
A|7777777777777777777777777777777777777777777777777777777777777777777||
E|-------------------------------------------------------------------||

E|-------------------------------------------------------------------||
B|-------------------------------------------------------------------||
G|999999999999999999999----------------------------------------------||
D|999999999999999999999----------------------------------------------||
A|777777777777777777777----------------------------------------------||
E|-------------------------------------------------------------------||

then
E|0-4p0-0-5p0-0-7p0-5-4-5p4p0-2p0-0-4p0-0-5p0-4p0-2p0-0-0------------||
B|-------------------------------------------------------------------||
G|-------------------------------------------------------------------||
D|-------------------------------------------------------------------||
A|-------------------------------------------------------------------||
E|-------------------------------------------------------------------||

E|0-4p0-0-5p0-0-7p0-5-4-5p4p0-2p0-0-4p0-0-2p0-4p0-2p0-0-0------------||
B|-------------------------------------------------------------------||
G|-------------------------------------------------------------------||
D|-------------------------------------------------------------------||
A|-------------------------------------------------------------------||
E|-------------------------------------------------------------------||


E|0-4p0-0-5p0-0-7p0-5-4-5p4p0-2p0-0-4p0-0-5p0-4p0-2p0-0-0------------||
B|-------------------------------------------------------------------||
G|-------------------------------------------------------------------||
D|-------------------------------------------------------------------||
A|-------------------------------------------------------------------||
E|-------------------------------------------------------------------||

E|0-4p0-0-5p0-0-7p0-5-4-5p4p0-2p0-0-4p0-0-2p0-4p0-2p0-0-0------------||
B|-------------------------------------------------------------------||
G|-------------------------------------------------------------------||
D|-------------------------------------------------------------------||
A|-------------------------------------------------------------------||
E|-------------------------------------------------------------------||

E|0-4p0-0-5p0-0-7p0-5-4-5p4p0-2p0-0-4p0-0-5p0-4p0-2p0-0-0------------||
B|-------------------------------------------------------------------||
G|-------------------------------------------------------------------||
D|-------------------------------------------------------------------||
A|-------------------------------------------------------------------||
E|-------------------------------------------------------------------||

E|0-4p0-0-5p0-0-7p0-5-4-5p4p0-2p0-0-4p0-0-2p0-4p0-2p0-0-0------------||
B|-------------------------------------------------------------------||
G|-------------------------------------------------------------------||
D|-------------------------------------------------------------------||
A|-------------------------------------------------------------------||
E|-------------------------------------------------------------------||


E|0-4p0-0-5p0-0-7p0-5-4-5p4p0-2p0-0-4p0-0-5p0-4p0-2p0-0-0------------||
B|-------------------------------------------------------------------||
G|-------------------------------------------------------------------||
D|-------------------------------------------------------------------||
A|-------------------------------------------------------------------||
E|-------------------------------------------------------------------||

E|0-4p0-0-5p0-0-7p0-5-4-5p4p0-2p0-0-4p0-0-2p0-4p0-2p0-0-0------------||
B|-------------------------------------------------------------------||
G|-------------------------------------------------------------------||
D|-------------------------------------------------------------------||
A|-------------------------------------------------------------------||
E|-------------------------------------------------------------------||


Final Chord
E|----------------||
B|----------------||
G|----------------||
D|2---------------||
A|2---------------||
E|0---------------||


Get this song at amazon.com      Ebay     Ringtones Ringtones  


Learn to play: Songwriting, Piano, Harmonica, Guitar
Also available at Muzikum: Blink 182 - M&m's lyrics

Related Blink 182 Tabs

Cheshire Cat Album tabs
Big Day Out tabs
A New Hope Solo tabs
Dammit (live An Normal 100%) tabs
M And Ms tabs
Time To Break Up tabs
Take Off Your Pants And Jacket (album) tabs
Action tabs
Dumpweed live tabs
When You Fucked Grandpa tabs
78 People tabs
Here\'s Your Letter tabs
Dammit (growing Up) tabs
When You F*cked Grandpa (easy For Beinners) tabs
Dysentery Gary Intro tabs
Going Away To College (Live) tabs
My Pet Sally tabs
Dicklips (live) tabs
All The Small Things tabs
Take Off Your Pants And Jacket tabs


Guitar Tabs









All tabs are property and copyright of their owners. All tabs provided for educational purposes only. Privacy Policy, DMCA

Online converter - videoconverter.com