Blink 182

Love Is Dangerous Bass Tabs



More from Blink 182

Blink 182 Tabs
Blink 182 Chords
Blink 182 Bass
Blink 182 Lyrics

INTRO/VERSE

G |---------------------------------------------------|
D |---------------------------------------------------|
A |---2---5-------------------------------------------|
E |-------------3-------------------------------------|

CHORUS

G |---------------------------------------------------|
D |---------------------------------------------------|
A |----2---0------------------------------------------|
E |-------------3-------------------------------------|

SECOND CHORUS HAS HIGHER OCTAVES DURING 3RD TIME THROUGH

BRIDGE

G |-----------------------------------------------------|
D |-----------------------------------------------------|
A |----5---0-----------5----0---------------------------|
E |-------------3----------------0---3------------------|
Get this song at amazon.com      Ebay     Ringtones Ringtones  


Learn to play: Songwriting, Piano, Harmonica, Guitar
More Blink 182 lyrics available at Muzikum

Related Blink 182 Bass Tabs

Cheshire Cat bass
Take Off Your Pants And Jacket - Bass Tab bass
All Teh Small Things bass
Man Overboard(right Verson) bass
Josie! 100% Correct bass
Wasting Time bass
First Date W/ Lyrics bass
Life's So Boring (instrumental) bass
Take Off Your Pants And Jacket (album) bass
Carosel bass
Just About Done bass
Hold On bass
Man Overboard bass
Snake Charmer bass
Easy Target bass
Adam's Song 100000000% bass
Anthem Part 2 bass
Zulu bass
Feels So Good bass
Family Reunion bass


Guitar Tabs









All tabs are property and copyright of their owners. All tabs provided for educational purposes only. Privacy Policy, DMCA