Blink 182

Lemmings Bass Tabs



More from Blink 182

Blink 182 Tabs
Blink 182 Chords
Blink 182 Bass
Blink 182 Lyrics



Tabber:Matt aka Commander Cool
Bassist:Mark Hoppus
Song:Lemmings

This is a kick ass song but im not 100% sure on the solo part
i also included the guitar riff.

Guitar Riff Intro and Verse

G|----------------|
D|---4-1---2-1----|
A|-2-----2--------|
E|----------------|

Intro

G|----------------------------------|
D|----------------------------------|
A|-22------22-----------------------|
E|----0000----4444-22-4444-00000000-|x2

Verse 1

G|----------------------------------------------------------------|
D|----------------------------------------------------------------|
A|----------------------------------------------------------------|
E|-2222222222222222-4444444444444444-0000000-2222-000000000000000-|x2

G|------------------------------------|
D|------------------------------------|
A|------------------------------------|
E|-22222222-44444444-0000000000000000-|x2


G|----------------------------------|
D|----------------------------------|
A|-22------22-----------------------|
E|----0000----4444-22-4444-00000000-|x2

Verse 2

G|------------------------------------------------------------------------|
D|------------------------------------------------------------------------|
A|------------------------------------------------------------------------|
E|-2222222222222222-4444444444444444-000000000000000-2222-000000000000000-|x2

G|------------------------------------|
D|------------------------------------|
A|------------------------------------|
E|-22222222-44444444-0000000000000000-|x2

Verse 3

G|------------------------------------------------------------------------|
D|------------------------------------------------------------------------|
A|------------------------------------------------------------------------|
E|-2222222222222222-4444444444444444-000000000000000-2222-000000000000000-|x2

G|------------------------------------|
D|------------------------------------|
A|------------------------------------|
E|-22222222-44444444-0000000000000000-|x2

Small Guitar Solo

G|--------------------------------------|
D|--------------------------------------|
A|-----------------------------77777777-|
E|-22222222-44444444-0000000-0----------|x2

Outro

G|-------------------------------------|
D|-------------------------------------|
A|-22222222-44444444----------77777777-|
E|-------------------44444444----------|x6

G|--------|
D|--------|
A|-2~-22~-|
E|--------|

Brought to you by the BassMasta - http://www.tabs-database.com



Get this song at amazon.com      Ebay     Ringtones Ringtones  


Learn to play: Songwriting, Piano, Harmonica, Guitar
Also available at Muzikum: Blink 182 - Lemmings lyrics

Related Blink 182 Bass Tabs

Carousel Buddha bass
Man Overboard(right Verson) bass
All The Small Things bass
Happy Holidays U B****** bass
Happy Holidays, You Basterd bass
Dammit (best You'll Find) bass
Mutt bass
Zulu bass
My Pet Sally bass
T V bass
Hold On bass
Point Of View bass
Even If She Falls bass
Boring bass
I Miss You Right Way bass
Carousel - Blink 182 bass
First Date bass
MH 4.18.2011 bass
Family Reuinion bass
Mark Tom And Travis Show bass


Guitar Tabs









All tabs are property and copyright of their owners. All tabs provided for educational purposes only. Privacy Policy, DMCA

Online converter - videoconverter.com