Blink 182

Kaleidoscope Bass Tabs



More from Blink 182

Blink 182 Tabs
Blink 182 Chords
Blink 182 Bass
Blink 182 Lyrics

DROP D

verse


G |-------------------------------------------------|
D |-------------------------------------------------|
A |---2---2---2---2--2---------0--2--0--0--2--------|
D |------------------------0--0---------------------|

G |--------------------------------------------------------------|
D |---------5--------5-------5-------5---5----7----5---7---------|
A |----2--------2--------2------2--------------------------------|
D |--------------------------------------------------------------|

CHORUS

G |------------------------------- -----------------|
D |------------------------------- END ON ----------|
A |------------------------------- ---2-------------|
D |---0---7---0---7--4---5----- --------------------|

VERSE 2


G |----------------------------|
D |----------------------------|
A |--2------2------2-----------| ETC
D |------5------5------5-------|

PRE 2NDCHORUS

G |-------------------------------------------------|
D |-------------------------------------------------|
A |-------------------------------------------------|
D |---0----7---9---7------5---7---5---7-------------|

BRIDGE

G |-------------------------------------------------|
D |-------------------------------------------------|
A |-------------------------------------------------|
D |---0---5---0---2---0---5---0---2-----------------| ETC
Get this song at amazon.com      Ebay     Ringtones Ringtones  


Learn to play: Songwriting, Piano, Harmonica, Guitar
More Blink 182 lyrics available at Muzikum

Related Blink 182 Bass Tabs

Fentoozler bass
The Rockshow bass
Whats My Age Agian bass
Carousel Budha bass
American Pie Theme Song bass
Transvestite bass
Anthem Prt Ii bass
Dammit (best You'll Find) bass
Going Away To College bass
Degenerate bass
Shut Up bass
I Know A Guy bass
A Letter To Elise bass
Does My Breath Smell bass
Easy Target 100% bass
Family Reunion (clean:p) bass
Don't Tell Me It's Over bass
All The Small Things (beginners) bass
Heart\'s All Gone bass
Emo bass


Guitar Tabs









All tabs are property and copyright of their owners. All tabs provided for educational purposes only. Privacy Policy, DMCA