Blink 182

It's Obvious Tabs



More from Blink 182

Blink 182 Tabs
Blink 182 Chords
Blink 182 Bass
Blink 182 Lyrics



~=Pause,let ring

I know the outro is not right,but give me a little time and I will figure it out.

Tune down either 1 or 1 1/2 steps (I'm not really sure but the song is always tuned differently
than my guitar)

Intro w/compressor effect

-----------------------------|
-----------------------------|
-----------------------------|
-2-22-5-555-5~~~2-22-5-555-5-|
-2-22-3-333-3~~~2-22-3-333-3-|
-0-00-3-333-3~~~0-00-3-333-3-|

Then break out into

-----------------------------------------------------------|--------------|
-----------------------------------------------------------|--------------|
-----------------------------------------------------------|--------------|
-2-22-5-555-5~~~2-22-5-555-5~~~2-22-5-555-5~~~2-22-5-555-5-|-5~~~~~~~~~~~~|
-2-22-3-333-3~~~2-22-3-333-3~~~2-22-3-333-5~~~2-22-3-333-3-|-5~~~~~~~~~~~~|
-0-00-3-333-3~~~0-00-3-333-3~~~0-00-3-333-3~~~0-00-3-333-3-|-3~~~~~~~~~~~~|

Chorus

-------------------------------------------------------------------|
-------------------------------------------------------------------|
-------------------------------------------------------------------|
-5~~~~~~-----------------------------------------------------------|
-x~~~~~~222-000-333---------------------------222-000-333----------| 2x
-3~~~~~~------------000-2222-3333333333333333-------------000-2222-|

After chorus w/compressor effect

--------------|
--------------|
--------------|
-2-22-5-555-5-|
-2-22-3-333-3-|
-0-00-3-333-3-|

break out into

-----------------------------------------------------------|------------|
-----------------------------------------------------------|------------|
-----------------------------------------------------------|------------|
-2-22-5-555-5~~~2-22-5-555-5~~~2-22-5-555-5~~~2-22-5-555-5-|-5~~~~~~~~~~|
-2-22-3-333-3~~~2-22-3-333-3~~~2-22-3-333-3~~~2-22-3-333-3-|-5~~~~~~~~~~|
-0-00-3-333-3~~~0-00-3-333-3~~~0-00-3-333-3~~~0-00-3-333-3-|-3~~~~~~~~~~|

Chorus

--------------------------------------------------------------|
--------------------------------------------------------------|
--------------------------------------------------------------|
-5~~~~~~------------------------------------------------------|
-x~~~~~~222-000-333---------------------------222-000-333-----|
-3~~~~~~------------000-2222-3333333333333333------------2222-|

---------------------------------------------------------------------|------------|
---------------------------------------------------------------------|------------|
---------------------------------------------------------------------|------------|
---------------------------------------------------------------------|------------|
------------------222-000-333-----------------------222-000-333------|-4~~~~~~~~~~|
-3333333333333333-------------2222-3333333333333333-------------2222-|-3~~~~~~~~~~|

Bridge w/compressor effect

-----------------------|
-----------------------|
-----------------------|
-555-555-222-666-55-66-|
-555-333-222-666-55-66-|
-333-333-000-444-33-44-|

-----------------------|
-----------------------|
-----------------------|
-555-555-222-666-55-66-|
-555-333-222-666-55-66-|
-333-333-000-444-33-44-|

w/out compressor effect

-----------------------|-----------------------|-----------------------|-----------------------|
-----------------------|-----------------------|-----------------------|-----------------------|
-----------------------|-----------------------|-----------------------|-----------------------|
-555-555-222-666-55-66-|-555-555-222-666-55-66-|-555-555-222-666-55-66-|-555-555-222-666-55-66-|
-555-333-222-666-55-66-|-555-333-222-666-55-66-|-555-333-222-666-55-66-|-555-333-222-666-55-66-|
-333-333-000-444-33-44-|-333-333-000-444-33-44-|-333-333-000-444-33-44-|-333-333-000-444-33-44-|

Outro Gtr.1

---------------------------------------------------------------------------|
---------------------------------------------------------------------------|
---------------------------------------------------------------------------|
-5555555555555555---4444444444444444---5555555555555555---4444444444444444-|
-5555555555555555---5555555555555555---5555555555555555---5555555555555555-| 8x (I think)
-3333333333333333-0-2222222222222222-0-3333333333333333-0-2222222222222222-|

End on

-------|
-------|
-------|
-2~~~~~|
-2~~~~~|
-0~~~~~|


Get this song at amazon.com      Ebay     Ringtones Ringtones  


Learn to play: Songwriting, Piano, Harmonica, Guitar
More Blink 182 lyrics available at Muzikum

Related Blink 182 Tabs

I'm Sorry tabs
Adams Song Intro2 tabs
Depends tabs
Enthused tabs
What Went Wrong tabs
Adams Song Live tabs
Track 15 tabs
Untitled tabs
Dude Ranch tabs
Time To Break Up tabs
Online Songs tabs
Macca Is Gay tabs
A Letter To Elise tabs
Adoms Song tabs
Anthem Part 2 tabs
Feeling This tabs
Reckless Abandon Solo tabs
M+ms tabs
Always tabs
Blow Job Song tabs


Guitar Tabs









All tabs are property and copyright of their owners. All tabs provided for educational purposes only. Privacy Policy, DMCA